Log in

One click and you are in

Login with Facebook Login with Google

Why sign up and log in

Guitar Tabs Explorer
Marilyn Manson guitar tabs for Down in the park

Guitar tabs

Album: From Highway to Hell
As tabbed by Joe Muggah

Bass Intro
G--------------------------------------------------------
D--------------------------------------------------------
A--3--3--5--5--1--1---------3--3--5--5-------------------
E--------------------1--1---------------5--5--5--5-------
Riff 1
e--------------------------------------------------------
B--------------------------------------------------------
G--5-----7-----3-----------5-----7-----------------------
D--5-----7-----3-----3-----5-----7-----7-----------------
A--3-----5-----1-----3-----3-----5-----7-----------------
E--------------------1-----------------5-----------------

Bass Verse (each hit 8 times)
G--------------------------------------------------------
D--------------------------------------------------------
A--3----5----1---------3----5----------------------------
E-----------------1--------------5----5------------------


Verse
e--------|-----------------------------------------------
B--------|-----------------------------------------------
G--7---7-|--5----7----3---------5----7-------------------
D--7---7-|--x----x----x----3----x----x----7--------------
A--5---5-|--3----5----1----x----3----5----x--------------
E--------|-----------------1--------------5--------------


Chorus A chord diagramA majorA (Guitar 1)                 Fill (Synthasizer)
e----------------------------------|---------------------
B----------------------------------|-10---13---10---12---
G----------------------------------|---------------------
D--7-----\---5-----\---3-------3---|---------------------
A--7-----\---5-----\---3-------3---|---------------------
E--5-----\---3-----\---1-------1---|---------------------

Chorus A chord diagramBB (Synthasizer arranged for Guitar 2)
e--17---20^--15---17/19/20---13--15/17/20---13--15/17/20-
B--------------------------------------------------------
G--------------------------------------------------------
D--------------------------------------------------------
A--------------------------------------------------------
E--------------------------------------------------------


Riff 2
e--15----13-------------17----15----13-------------------
B--------------13----------------------------------------
G--------------------------------------------------------
D--------------------------------------------------------
A--------------------------------------------------------
E--------------------------------------------------------


Bridge (palm muted, each hit 4 times)
e--------------------------------------------------------
B--------------------------------------------------------
G--5----7----3---------5----7----------------------------
D--5----7----3----3----5----7----7----7------------------
A--3----5----1----3----3----5----7----7------------------
E-----------------1--------------5----5------------------


Outro
e--8-----8/9-8----8----8/9-8-----8----8/9-8--------------
B--------------------------------------------------------
G--------------------------------------------------------
D--------------------------------------------------------
A--------------------------------------------------------
E--------------------------------------------------------

Bass Intro

Riff 1
Bass Verse
Bass Verse, Verse
Fill

Chorus A chord diagramA majorA
Bass Verse, Verse
Fill
Bass Verse, Riff 1

Chorus A, A chord diagramBB

Riff 2

Bridge
Bass Intro
Fill

Verse

Chorus A, A chord diagramBB

Outro

Chorus A, A chord diagramBB

Other versions of Down In The Park

Down in The ParkChords

Almost there ...

Sign in to get your own page with links to favourite songs and more. You are just one click away...

Login with Facebook Login with Google