Search tabs and chords

Search for song, artist or band

Log in

One click and you are in

Login with Facebook Login with Google

Why sign up and log in

Guitar Tabs Explorer
Marilyn Manson bass tabs for Down in the park

Bass tabs

Intro:
G------------------------------------------------------------------
D------------------------------------------------------------------
A--3-----5-------------------3-----5-------------------------------
E----------------6-----1-------------------5-----------------------
					(Repeat 2x)

G------------------------------------------------------------------
D------------------------------------------------------------------
A--3-----5-------------------3-----5-------------------------------
E----------------6-----1-------------------5-----------------------
	“Down in the Park…”	(Repeat 2x)

G------------------------------------------------------------------
D------------------------------------------------------------------
A------------------------------------------------------------------
E--5-5-5-5-5-----3-3-3-3-3-----1-1-1-1-1----1-1-1-1-1--------------
G------------------------------------------------------------------
D------------------------------------------------------------------
A--3-----5-------------------3-----5-------------------------------
E----------------6-----1-------------------5-----------------------
	“Sure enough sounds…”		(Repeat 2x)

G------------------------------------------------------------------
D------------------------------------------------------------------
A------------------------------------------------------------------
E--5-5-5-5-5-----3-3-3-3-3-----1-1-1-1-1----1-1-1-1-1/-------------

G------------------------------------------------------------------
D------------------------------------------------------------------
A------------------------------------------------------------------
E--/5-5-5-5-5-----3-3-3-3-3-----1----------------------------------
	“We are not lovers…”

G------------------------------------------------------------------
D------------------------------------------------------------------
A--3-----5-------------------3-----5-------------------------------
E----------------6-----1-------------------5-----------------------
					(Repeat 2x)
Pause on…Manson sings “Down to the park…”

G------------------------------------------------------------------
D------------------------------------------------------------------
A--3-----5-------------------3-----5-------------------------------
E----------------6-----1-------------------5-----------------------
	“We are not lovers…”

G------------------------------------------------------------------
D------------------------------------------------------------------
A------------------------------------------------------------------
E--5-5-5-5-5-----3-3-3-3-3-----1-1-1-1-1----1-1-1-1-1/-------------
					(Repeat 5x)

G------------------------------------------------------------------
D------------------------------------------------------------------
A------------------------------------------------------3-----------
E--5-5-5-5-5-----3-3-3-3-3-----1-1-1-1-1----1-1-1-1-

Almost there ...

Sign in to get your own page with links to favourite songs and more. You are just one click away...

Login with Facebook Login with Google