Search tabs and chords

Search for song, artist or band

Log in

One click and you are in

Login with Facebook Login with Google

Why sign up and log in

Guitar Tabs Explorer
Marilyn Manson bass tabs for Dope show

Bass tabs

Tabbed By : Rachel
e-mail: lafaeverte000015@aim.com

Tuning: Standard

This is my first attempt at writing tabs. I mostly went by ear, listening to the track
Intro/Verse:

G|-------------------------------|-----------------------------------|
D|-------------------------------|-----------------------------------|
A|-------------------------------|---------5--5-------3--3-----------|
E|----0----0----0-0----3-0-------|-----------------------------------|
(x2)

(repeats many times)



at "....Cause all the pretty, pretty ones...":

G|--------------------------|---------------------------|
D|--------------------------|---------------------------|
A|--------------------------|---------------------------|
E|-----0----0----0----0-----|-----3----3----3----3------|



G|------------------------|-----------------------------|
D|------------------------|-----------------------------|
A|----5----5----5----5----|-----3----3----3----3--------|
E|------------------------|-----------------------------|
(played 2x)

Repeat verse/intro part once



"They love you when you're on all the covers...":

G|------------------------|-------------------------------|
D|------------------------|-------------------------------|
A|------------------------|----------------5-5------------|
E|------0-0----0-3-3------|-----3-5-5----5----------------|
(x3)


G|------------------------|-------------------------------|
D|------------------------|-------------------------------|
A|----------------5-5-----|-----5-3-3----3----------------|
E|-----0-0----0-----------|----------------3-3----3-------|




Basically these riffs repeat throughout the whole song. Just listen to it I
think you can get it from this.

Almost there ...

Sign in to get your own page with links to favourite songs and more. You are just one click away...

Login with Facebook Login with Google