Search tabs and chords

Search for song, artist or band

Log in

One click and you are in

Login with Facebook Login with Google

Why sign up and log in

Guitar Tabs Explorer
Marilyn Manson guitar tabs for Dope hat

Guitar tabs with lyrics

Album: Portrait of an American Family
As tabbed by Joe Muggah

Pre-Chorus
e------|--------------------------------------------------
B------|--------------------------------------------------
G--11\-|--------------------------------------5-5-5-4-4-4-
D--11\-|--4-4-4-4-4-4-7-7-7-7-7-7-4-4-4-4-4-4-5-5-5-4-4-4-
A---9\-|--4-4-4-4-4-4-7-7-7-7-7-7-4-4-4-4-4-4-3-3-3-2-2-2-
E------|--2-2-2-2-2-2-5-5-5-5-5-5-2-2-2-2-2-2-------------

Intro
e--15\10/15-------------15\-----12-----------12-----------
B--------------/8--10\---------------12--10\-----12--10-/-
G---------------------------------------------------------
D---------------------------------------------------------
A---------------------------------------------------------
E---------------------------------------------------------

Bass Verse
G---------------------------------------------------------
D---------------------------------------------------------
A--------4--4--3--3--2--2---------4--4--3--3--2--7\-------
E--2--2---------------------2--2--------------------------

Verse 1A (Guitar 1)            Fill
e----------------------------|----------------------------
B----------------------------|----------------------------
G--------6--6--5--5----------|----------------------------
D--4--4--6--6--5--5----------|----------------------------
A--4--4--4--4--3--3--3p2p0---|----------------------------
E--2--2----------------------|--0/2---0/2-----------------

Verse 1B (Synthasizer for guitar 2)
e-------21---20---19--------21---20---19------------------
B--19------------------19---------------------------------
G---------------------------------------------------------
D---------------------------------------------------------
A---------------------------------------------------------
E---------------------------------------------------------

Solo 1
e-------9-----8-8^-8^-8\---------------------17-17-17\----
B--10-----7---------------7-------------------------------
G---------------------------9-9-9-9-9-10-11---------------
D---------------------------------------------------------
A---------------------------------------------------------
E---------------------------------------------------------

(continued)
e---------------------16p15h16p15h16p15-------------------
B----------------------------------------13-13-13-13-13\--
G-------9\-------11\---------------------12-12-12-12-12\--
D--10\------10\-------------------------------------------
A---------------------------------------------------------
E---------------------------------------------------------

Chorus (each hit 4 times)
e---------------------------------------------------------
B---------------------------------------------------------
G--9--------9---------11--------11------------------------
D--9---10---9---10----11---12---11---12-------------------
A--7---10---7---10-----9---12----9---12-------------------
E-------8--------8---------10--------10-------------------

Post-Chorus (each hit 3 times)
e---------------------------------------------------------
B---------------------------------------------------------
G--11---10---9---8---7---6---5---4------------------------
D--11---10---9---8---7---6---5---4------------------------
A---9----8---7---6---5---4---3---2------------------------
E---------------------------------------------------------

Verse 2
e---------------------------------------------------------
B---------------------------------------------------------
G--11---------------------11------------------------------
D---x---11---10----9--7----x---11---10----9--7------------
A---9----x----x----x--x----9----x----x----x--x------------
E--------9----8----7--5---------9----8----7--5------------

Solo 2
e---------------------------------------------------------
B---------------------------------------------------------
G------------------------------------9^--------9--11--9---
D----------------7--7--7--7-9-10-11------11^--------------
A--9-9--7h9p7h9-------------------------------------------
E---------------------------------------------------------

(continued)
e---------------------------------------------------------
B---------------------------------------------------------
G--9--11^-11------9-------9-11-11-9--9-11-11-9--9-11-11-9-
D------------11-----11\-----------------------------------
A---------------------------------------------------------
E---------------------------------------------------------

(continued)
e------------------9-9-9-9--14--14-16-17--17-17-17-17\----
B-----10-10-10-10-----------------------------------------
G--11-----------------------------------------------------
D---------------------------------------------------------
A---------------------------------------------------------
E---------------------------------------------------------

Pre-Chorus
Bass Verse, Intro, Verse 1A, Fill
Bass Verse, Verse 1A
Bass Verse, Verse 1B
Bass Verse, Verse 1A, Solo 1
Bass Verse, Verse 1A, 1B
Pre-Chorus
Chorus
Post-Chorus
Bass Verse, Verse 2
Bass Verse, Verse 1B, 2
Bass Verse, Verse 1A, Solo 2
Pre-Chorus
Chorus
Post-Chorus

Other versions of Dope Hat

Dope hatChords

Almost there ...

Sign in to get your own page with links to favourite songs and more. You are just one click away...

Login with Facebook Login with Google