Search tabs and chords

Search for song, artist or band

Log in

One click and you are in

Login with Facebook Login with Google

Why sign up and log in

Guitar Tabs Explorer
Marilyn Manson bass tabs for Dope hat

Bass tabs

Song name: Dope hat
Album: Portrait of an American family
As tabbed by: Andrej "Oskar" Paulus

While  guitar plays solo, bass play verse.

Intro/Prechorus
                                     end on
G-----------------------------------|-------
D-----------------------------------|-------
A--------------------3(X3)-2(X3)----|-------
E--2(X6)-5(X6)-2(X6)----------------|-2-----

Verse (repeat as many times as you need)      end on
G--------------------------------------------|------
D--------------------------------------------|------
A------4-4-3-3-2-(0)-2------4-4-3-3-2-(0)-2--|------
E--2-2------------------2-2------------------|-2----
(I peek into the...)

Chorus:
G--------------------------------------------
D--------------------------------------------
A--7-7-7-7---------9-9-9-9-------------------
E----------8-8-8-8---------10-10-10-10-------
(My big top...)

Break(Each note hit 3 times, except last one)
G--------------------------------------------
D--------------------------------------------
A--9-8-7-6-5-4-3-2---------------------------
E------------------2-------------------------

Intro
Verse
Prechorus
Chorus
Break
Verse
Prechorus
Chorus
Break

Coments, questions, please let me know:-))  andrej_paulus@net.hr
Andrej

Almost there ...

Sign in to get your own page with links to favourite songs and more. You are just one click away...

Login with Facebook Login with Google