Log in

One click and you are in

Login with Facebook Login with Google

Why sign up and log in

Guitar Tabs Explorer
Marilyn Manson guitar tabs for Doll-dagga buzz-buzz ziggety-zag

Doll-dagga Buzz-buzz Ziggety-zag tab by Marilyn Manson

Marilyn Manson guitar tabs for Doll-dagga buzz-buzz ziggety-zag

Guitar tabs

Album: The Golden Age of Grotesque (2003)
As tabbed by Joe Muggah

Dropped A chord diagramD MajorD tuning

Chorus
e----------------------------------------------------------
B----------------------------------------------------------
G----------------------------------------------------------
D--2---2---2-0-5-0-2-0-5-0-2-0-5--5--5--5--5--5-2----------
A--2---2---2-0-5-0-2-0-5-0-2-0-5--5--5--5--5--5-2----------
D--2---2---2-0-5-0-2-0-5-0-2-0-5--5--5--5--5--5-2----------


Verse
e----------------------------------------------------------
B----------------------------------------------------------
G----------------------------------------------------------
D--2-----2/5-0-2--<5>-<5>-<5>-<5>-<5>----------------------
A--2-----2/5-0-2-------------------------------------------
D--2-----2/5-0-2-------------------------------------------


Riff A chord diagramA majorA (Guitar 1, palm muted)
e----------------------------------------------------------
B----------------------------------------------------------
G----------------------------------------------------------
D--2-2--2-2--2-2--2-2--2-2--2-2--2-2--2-2------------------
A--2-2--2-2--2-2--2-2--2-2--2-2--2-2--2-2------------------
D--2-2--2-2--2-2--2-2--2-2--2-2--2-2--2-2------------------
("Doll-dagga buzz-buzz...")

Riff A chord diagramBB (Guitar 2)
e----------------------------------------------------------
B----------------------------------------------------------
G----------------------------------------------------------
D----------------------------------------------------------
A--7---8---9---10-\-----7---8---9---10-\-------------------
D----------------------------------------------------------


Pre-Chorus
e----------------------------------------------------------
B----------------------------------------------------------
G----------------------------------------------------------
D--9------8------5----9----2-----9------8------5----9------
A--9------8------5----9----2-----9------8------5----9------
D--9------8------5----9----2-----9------8------5----9------
("All the thug rock kids...")


Bridge
e--------7^v------------------------7^v--------------------
B-----8------------8-------------8------------8------------
G--9------------9-----9-9-\---9------------9-----9-9-\-----
D----------------------------------------------------------
A----------------------------------------------------------
D----------------------------------------------------------



Chorus

Verse

Chorus

Riff A, A chord diagramBB

Pre-Chorus

Chorus

Verse

Verse, Riff A chord diagramBB

Pre-Chorus

Chorus

Bridge

Riff A, A chord diagramBB

Pre-Chorus

Chorus

Riff A chord diagramA majorA

Almost there ...

Sign in to get your own page with links to favourite songs and more. You are just one click away...

Login with Facebook Login with Google