Log in

One click and you are in

Login with Facebook Login with Google

Why sign up and log in

Guitar Tabs Explorer
Marilyn Manson guitar tabs for Dogma

Guitar tabs

Album: Portrait of an American Family
As tabbed by Joe Muggah


Intro (each hit 16 times)
e-----|----------------------------------------------------
B-----|----------------------------------------------------
G--8--|--5---8---7---5-------------------------------------
D--8--|--5---8---7---5-------------------------------------
A--6--|--3---6---5---3-------------------------------------
E-----|----------------------------------------------------
Verse (each hit 8 times and palm muted)
e----------------------------------------------------------
B----------------------------------------------------------
G--5---5---8---8---7---7---5---5---------------------------
D--5---5---8---8---7---7---5---5---------------------------
A--3---3---6---6---5---5---3---3---------------------------
E----------------------------------------------------------
("Burn the witches...")


Pre-Chorus
e----------------------------------------------------------
B----------------------------------------------------------
G--5----\--3/5---------------------------------------------
D--5----\--3/5---------------------------------------------
A--3----\--1/3---------------------------------------------
E----------------------------------------------------------
("Good is the thing...")


Chorus
e----------------------------------------------------------
B----------------------------------------------------------
G--5--5--5--5--5----5--5--5--5--5--------------------------
D--5--5--5--5--5----5--5--5--5--5--------------------------
A--3--3--3--3--3----3--3--3--3--3--------------------------
E----------------------------------------------------------
("You can not sedate all the things you hate...")

Post-Chorus
e----------------------------------------------------------
B----------------------------------------------------------
G----------------------------------------------------------
D--3m-3m-3m-3m--3-3---3m-3m-3m-3m-3m-3m--------------------
A--3m-3m-3m-3m--3-3---3m-3m-3m-3m-3m-3m--------------------
E--1m-1m-1m-1m--1-1---1m-1m-1m-1m-1m-1m--------------------

Solo 1
e----------------------------------------------------------
B----------------------------------------------------------
G------------------------------------------8---------------
D--8/10-10-10-10-10-10-10-10---8-10-10-10----10-10-10------
A----------------------------------------------------------
E----------------------------------------------------------

(coninued)
e----------------------------------------------------------
B----------------------------------------------------------
G--8-8-8-8-8-8-8-8--6-8-8-8--10-8-8-8--7-7-7-7-7-7-7-7-----
D----------------------------------------------------------
A----------------------------------------------------------
E----------------------------------------------------------

(continued)
e----------------------------------------------------------
B----------------------------------------------------------
G--5-7-7-7--8-7-7-7--10-10-10-10-12-12-12-12--10-12-10-12--
D----------------------------------------------------------
A----------------------------------------------------------
E----------------------------------------------------------


Bridge
e----------------------------------------------------------
B----------------------------------------------------------
G--5m-5m--5m-5---5m-5m--5m-5---8m-8m--8m-8---8m-8m--8m-8---
D--5m-5m--5m-5---5m-5m--5m-5---8m-8m--8m-8---8m-8m--8m-8---
A--3m-3m--3m-3---3m-3m--3m-3---6m-6m--6m-6---6m-6m--6m-6---
E----------------------------------------------------------

(continued)
e----------------------------------------------------------
B----------------------------------------------------------
G--7m-7m--7m-7---7m-7m--7m-7---5m-5m--5m-5---5m-5m--5m-5---
D--7m-7m--7m-7---7m-7m--7m-7---5m-5m--5m-5---5m-5m--5m-5---
A--5m-5m--5m-5---5m-5m--5m-5---3m-3m--3m-3---3m-3m--3m-3---
E----------------------------------------------------------


Solo 2
e----------------------------------------------------------
B----------------------------------------------------------
G-----------------------8-----12-11-9-11---------------8---
D--10--13-10---10-8--10---10--------------10-8--10--10-----
A----------------------------------------------------------
E----------------------------------------------------------

(continued)
e----------------------------------------------------------
B----------------------------------------------------------
G------11^------------8-----12-11-9-11-----------8----8^---
D--10-------10-13--10---10--------------10-8--10---10------
A----------------------------------------------------------
E----------------------------------------------------------


Riff 1
e----------------------------------------------------------
B--16^--\13---13^--\11--11/13^---\11---11/13^--\-----------
G----------------------------------------------------------
D----------------------------------------------------------
A----------------------------------------------------------
E----------------------------------------------------------


Riff 2A (Guitar 1)                       Riff 2B (Guitar 2)
e----------------------------------------|---------11------
B----------------------------------------|------------13-11
G---------------------8m-8m-8m-8m-8m-8-8-|-10\--10---------
D--3m-3m-3m-3m-3m-3-3-8m-8m-8m-8m-8m-8-8-|-----------------
A--3m-3m-3m-3m-3m-3-3-6m-6m-6m-6m-6m-6-6-|-----------------
E--1m-1m-1m-1m-1m-1-1--------------------|-----------------


Outro A chord diagramA majorA (Guitar 1)                             end on
e------------------------------------------------|---------
B--(4 times)---(4 times)---(4 times)---(4 times)-|---------
G--5m-5m-5-----8m-8m-8-----7m-7m-7-----5m-5m-5---|---------
D--5m-5m-5-----8m-8m-8-----7m-7m-7-----5m-5m-5---|--5------
A--3m-3m-3-----6m-6m-6-----5m-5m-5-----3m-3m-3---|--5-(x5)-
E------------------------------------------------|--3------


Outro A chord diagramBB (Guitar 2)
e--------------11^---11^---10---10-------------------------
B--13^---13^-----------------------------------------------
G----------------------------------------------------------
D----------------------------------------------------------
A----------------------------------------------------------
E----------------------------------------------------------


Intro

Verse

Pre-Chorus

Chorus
Post-Chorus

Intro, Solo 1

Verse

Pre-Chorus

Chorus
Post-Chorus

Bridge, Solo 2

Intro, Riff 1

Chorus
Post-Chorus

Chorus
Post-Chorus

Riff 2A, 2B

Intro, Solo 1

Intro

Outro A, A chord diagramBB

Other versions of Dogma

DogmaChords

Almost there ...

Sign in to get your own page with links to favourite songs and more. You are just one click away...

Login with Facebook Login with Google