Log in

One click and you are in

Login with Facebook Login with Google

Why sign up and log in

Guitar Tabs Explorer
Marilyn Manson guitar chords for Disposable teens

Guitar chords

Album: Holy Wood
As tabbed by Joe Muggah

In Dropped A chord diagramD MajorD tuning
Chorus A chord diagramA majorA (Guitar 1)
e--------------------------------------------------
B--------------------------------------------------
G-7-7-5-5/10-7---7-7-5-7--x-x--x-------------------
D-7-7-5-5/10-7---7-7-5-7--x-x--x-------------------
A-5-5-3-3/-8-5---5-5-3-5--x-x--x-------------------
D--------------------------------------------------


Verse
e--------------------------------------------------
B--------------------------------------------------
G--------------------------------------------------
D-0-0-x-x-x-x-0-0-x-0-0-x-x-x-x-x-x----------------
A-0-0-x-x-x-x-0-0-x-0-0-x-x-x-x-x-x----------------
D-0-0-x-x-x-x-0-0-x-0-0-x-x-x-x-x-x----------------
("And I'm a black rainbow...")

(coninued)
e--------------------------------------------------
B--------------------------------------------------
G--------------------------------------------------
D-0-0-x-x-x-x-0-0-x-0-0-x-x-0-3-0-3----------------
A-0-0-x-x-x-x-0-0-x-0-0-x-x-0-3-0-3----------------
D-0-0-x-x-x-x-0-0-x-0-0-x-x-0-3-0-3----------------


Chorus A chord diagramBB (Guitar 2)
G--------------------------------------------------
D-0-----6-----7^------0-----6-----7^---------------
A--------------------------------------------------
D--------------------------------------------------

Bridge               Fill
e------------------|-------------------------------
B------------------|-------------------------------
G-7---------8--9---|--5-6--------------------------
D-7-(x23)---8--9---|--5-6--------------------------
A-5---------6--7---|--3-4--------------------------
D------------------|-------------------------------
("The more that you fear us...")


Chorus A chord diagramA majorA

Verse

Chorus A chord diagramA majorA

Verse

Chorus A, A chord diagramBB

Bridge

Break
Fill

Chorus A, A chord diagramBB

Pretty much as accurate as I could make it. An evilly catchy
song that's fun for all ages!

Almost there ...

Sign in to get your own page with links to favourite songs and more. You are just one click away...

Login with Facebook Login with Google