Log in

One click and you are in

Login with Facebook Login with Google

Why sign up and log in

Guitar Tabs Explorer
Marilyn Manson guitar tabs for Disassociative

Guitar tabs

Album: Mechanical Animals
As tabbed by Joe Muggah


Verse
e-----0--------------0----------------------------------
B-------0---------3--1----------0-----------------------
G--------------------0--------0--------0--3/4--2-2------
D---2-----------4----2------0--------2----3/4--2-2------
A-0---------3/5------3----2--------3------1/2--0-0------
E-------------------------------------------------------
Pre-Chorus A chord diagramA majorA (Syntasizer for Guitar 1)
e-------------------------------------------------------
B-------------------------------------------------------
G-4----2-----------------4----2-------------------------
D-4----2----5----2--0----4----2----5----2---------------
A-2----0----5------------2----0----5-------0------------
E-----------3----------------------3--------------------
("The nervous systems down...")


Pre-Chorus A chord diagramBB (Synthasizer for Guitar 2)
e-------------------------------------------------------
B-12---10---8-------7----12---10---8-------7------------
G-------------------------------------------------------
D-------------------------------------------------------
A-------------------------------------------------------
E-------------------------------------------------------


Chorus A chord diagramA majorA (Guitar 1, each hit 8 times)
e-------------------------------------------------------
B-------------------------------------------------------
G-----2---5---2-------2---5---2-------------------------
D-3---2---5---2---3---2---5---2-------------------------
A-3---0---3---0---3---0---3---0-------------------------
E-1---------------1-------------------------------------
("I can never get out of here...")

Chorus A chord diagramBB (Guitar 2)    3 times then:
e-8-8-8-8-8-8-8-8--7-7--|--10-10-10-10-10-10-10--7-7----
B-x-x-x-x-x-x-x-x--x-x--|---x--x--x--x--x--x--x--x-x----
G-5-5-5-5-5-5-5-5--4-4--|---7--7--7--7--7--7--7--4-4----
D-------------------------------------------------------
A-------------------------------------------------------
E-------------------------------------------------------

Post-Chorus
e-------------------------------------------------------
B-------------------------------------------------------
G----5--4--5--------5-----5-----------------------------
D-4-----------4--3-----2--------------------------------
A-------------------------------------------------------
E-------------------------------------------------------


Bridge (Bass)
G-------------------------------------------------------
D------------------2-2-2-4-4-4-5-5----------------------
A-2-2-2-4-4-4-5-5--------------------0-0-0-2-2-2-4-4----
E----------------------------------------------------*2-
* played 8 times


Chorus A chord diagramC majorC (Guitar 2)
e-------0----------0----------0----------0---------------
B---------0----------0----------0----------0-------------
G-------------------------------------------------------
D--------------2----------5----------2-------------------
A---3--------0----------3----------0---------------------
E-1-----------------------------------------------------


Solo
e-8^----5---10^----7-8-7-5---8^----5----10^----7-8-7-5--
B-------------------------------------------------------
G-------------------------------------------------------
D-------------------------------------------------------
A-------------------------------------------------------
E-------------------------------------------------------


Outro (Bass)
G-------------------------------------------------------
D-------------------------------------------------------
A-0-0-0-2-2-2-3-3---0-0-0-2-2-2-3-3---------------------
E-------------------------------------------------------


Verse

Pre-Chorus A, A chord diagramBB

Chorus A, A chord diagramBB
Post-Chorus

Verse

Chorus A, A chord diagramBB

Bridge

Chorus A, B, Solo

Chorus A, A chord diagramBB

Outro

Other versions of Disassociative

DisassociativeChords
Disassociative acousticChords

Almost there ...

Sign in to get your own page with links to favourite songs and more. You are just one click away...

Login with Facebook Login with Google