Search tabs and chords

Search for song, artist or band

Log in

One click and you are in

Login with Facebook Login with Google

Why sign up and log in

Guitar Tabs Explorer
Marilyn Manson bass tabs for Disassociative

Bass tabs

Track 5 from Mechanical Animals - Disassociative

Tuning: Standard

Intro - John 5's Guitar

                                       Intro
G |-------------------------|-------------------------|-------------------------|----------|
D |-------------------------|-------------------------|-------------------------|----------|
A |-------------------------|-------------------------|-------------------------|----------|
E |--1---1*-------1*-----1--|--5---5*-------5*-----5--|--7---7*-------8*-----8--|--5---5*--|

                                      Verse
G |-------------------------|-------------------------|-------------------------|----------|
D |-------------------------|-------------------------|-------------------------|----------|
A |-------------------------|-------------------------|-------------------------|----------|
E |--1---1*-------1*-----1--|--5---5*-------5*-----5--|--8---8*-------8*-----8--|--5---5*--|

G |-------------------------|-------------------------|-------------------------|----------|
D |-------------------------|-------------------------|-------------------------|----------| X2
A |-------------------------|-------------------------|-------------------------|----------|
E |--1---1*-------1*-----1--|--5---5*-------5*-----5--|--7---7*-------8*-----8--|--5---5*--|

                         Prechorus - X2
G |---------------------------|---------------------------|
D |---------------------------|---------------------------|
A |---------------------------|---------------------------|
E |--7-----7--7*-----7--7--7--|--5-----5--5*-----5--5--5--|

G |--------------------------|---------------------------|
D |--------------------------|---------------------------|
A |--------------------------|---------------------------|
E --3-----3--3*-----3--3--3--|--3-----3--3*-----3--3--3--|

                                Chorus
G |-------------------|-------------------|-------------------|-------------------|
D |-------------------|-------------------|-------------------|-------------------|
A |-------------------|-------------------|-------------------|-------------------|
E |--1-1-1-1-1-1-1-1--|--5-5-5-5-5-5-5-5--|--8-8-8-8-8-8-8-8--|--5-5-5-5-5-5-5-5--|

G |-------------------|-------------------|-------------------|
D |-------------------|-------------------|-------------------|
A |-------------------|-------------------|-------------------|
E |--1-1-1-1-1-1-1-1--|--5-5-5-5-5-5-5-5--|--8-8-8-8-8-8-8-8--|

G |-----------------|
D |-----------------| X2
A |-----------------|
E |--5------7----8--|

                                    Verse II
G |-------------------------|-------------------------|-------------------------|----------|
D |-------------------------|-------------------------|-------------------------|----------|
A |-------------------------|-------------------------|-------------------------|----------|
E |--1---1*-------1*-----1--|--5---5*-------5*-----5--|--8---8*-------8*-----8--|--5---5*--|

G |-------------------------|-------------------------|-------------------------|----------|
D |-------------------------|-------------------------|-------------------------|----------| X3
A |-------------------------|-------------------------|-------------------------|----------|
E |--1---1*-------1*-----1--|--5---5*-------5*-----5--|--7---7*-------8*-----8--|--5---5*--|

                                          Chorus 2
G |-------------------|-------------------|-------------------|-------------------|
D |-------------------|-------------------|-------------------|-------------------|
A |-------------------|-------------------|-------------------|-------------------|
E |--1-1-1-1-1-1-1-1--|--5-5-5-5-5-5-5-5--|--8-8-8-8-8-8-8-8--|--5-5-5-5-5-5-5-5--|

G |-------------------|-------------------|-------------------|-------------------|
D |-------------------|-------------------|-------------------|-------------------|
A |-------------------|-------------------|-------------------|-------------------|
E |--1-1-1-1-1-1-1-1--|--5-5-5-5-5-5-5-5--|--8-8-8-8-8-8-8-8--|--5-5-5-5-5-5-5-5--|

                                           Bridge
G |------------------------|-----------------------|-----------------------|-----------------------|
D |------------------------|-----------------------|-----------------------|-----------------------| X2
A |------------------------|--7-------7--7*----7---|-----------------------|-----------------------|
E |--7-------7--9*----10---|-----------------------|--5-------5--7*----8---|--2-------2--2*----2---|

                                  Final Chorus
G |-------------------|-------------------|-------------------|-------------------|
D |-------------------|-------------------|-------------------|-------------------| X2
A |-------------------|-------------------|-------------------|-------------------|
E |--1-1-1-1-1-1-1-1--|--5-5-5-5-5-5-5-5--|--8-8-8-8-8-8-8-8--|--5-5-5-5-5-5-5-5--|

                                      Outro
G |-------------------|-------------------|-------------------|-------------------|
D |-------------------|-------------------|-------------------|-------------------|
A |-------------------|-------------------|-------------------|-------------------|
E |--1-1-1-1-1-1-1-1--|--5-5-5-5-5-5-5-5--|--8-8-8-8-8-8-8-8--|--5-5-5-5-5-5-5-5--|

G |-------------------|-------------------|-------------------|
D |-------------------|-------------------|-------------------|
A |-------------------|-------------------|-------------------|
E |--1-1-1-1-1-1-1-1--|--5-5-5-5-5-5-5-5--|--8-8-8-8-8-8-8-8--|

G |----------------------|
D |--7-7-7-9-9-10-10-10--| X4
A |----------------------|
E |----------------------|

Almost there ...

Sign in to get your own page with links to favourite songs and more. You are just one click away...

Login with Facebook Login with Google