Log in

One click and you are in

Login with Facebook Login with Google

Why sign up and log in

Guitar Tabs Explorer
Marilyn Manson guitar tabs for Deep six

Guitar tabs

-------------------------------------------------------------------------------
                             Deep Six  - Marilyn Manson
-------------------------------------------------------------------------------
Tabbed by: TheElijah808
E-mail: elijah.teves@hotmail.com

This is the first tab for this song on the internet. I tried my best lol.
Tuning: Standard


Intro:
e|---------------------------------------------------------------------------|
B|---------------------------------------------------------------------------|
G|---------------------------------------------------------------------------|
D|---------------------------------------------------------------------------|
A|-----2----2--------2------2------------------------------------------------|
E|--0----0----0--3------1------3---1-----------------------------------------|


Verse:
e|---------------------------------------------------------------------------|
B|---------------------------------------------------------------------------|
G|---------------------------------------------------------------------------|
D|---------------------------------------------------------------------------|
A|--2--2----2--2----2--3----2--2----2--3--2----------------------------------|
E|--0--0----0--0----0--1----0--0----0--1--0----------------------------------|

e|---------------------------------------------------------------------------|
B|---------------------------------------------------------------------------|
G|---------------------------------------------------------------------------|
D|---------------------------------------------------------------------------|
A|--2--2----2--2----2--5-5-5-3-3-3-3-----------------------------------------|
E|--0--0----0--0----0--3-3-3-1-1-1-1-----------------------------------------|


Pre - Chorus :
e|---------------------------------------------------------------------------|
B|---------------------------------------------------------------------------|
G|---------------------------------------------------------------------------|
D|---------------------------------------------------------------------------|
A|--2--2----2--2----2--3----2--2----2--3--2----------------------------------|
E|--0--0----0--0----0--1----0--0----0--1--0----------------------------------|

e|---------------------------------------------------------------------------|
B|------------------------------7-7-7-7-7------------------------------------|
G|------------------------------7-7-7-7-7------------------------------------|
D|------------------------------5-5-5-5-5------------------------------------|
A|--2--2----2--2----2--5-5-5-------------------------------------------------|
E|--0--0----0--0----0--3-3-3-------------------------------------------------|


Chorus:
e|---------------------------------------------------------------------------|
B|---------------------------------------------------------------------------|
G|--4-------2-------7--------------------------------------------------------|
D|--4-X8----2-X8----7-X8----5-5-5-5-5--7-7-7---9-----------------------------|
A|--2-------0-------5-------3-3-3-3-3--7-7-7---9-X8--------------------------|
E|--------------------------3-3-3-3-3--5-5-5---7-----------------------------|

e|---------------------------------------------------------------------------|
B|---------------------------------------------------------------------------|
G|---------------------------------------------------------------------------|
D|---------------------------------------------------------------------------|
A|--7-7-7-7-7-9-7---5-X12---5--7-7-7-----------------------------------------|
E|--5-5-5-5-5-7-5---3-------3--5-5-5-----------------------------------------|


Intro X8

Verse X2

Intro X4

Pre Chorus X1

Chorus X1

Verse X2

Intro X7

Chorus X2

Verse X2

Intro X3

Chorus X2

Verse X2

Almost there ...

Sign in to get your own page with links to favourite songs and more. You are just one click away...

Login with Facebook Login with Google