Log in

One click and you are in

Login with Facebook Login with Google

Why sign up and log in

Guitar Tabs Explorer
Marilyn Manson bass tabs for Cyclops

Bass tabs

Song name: Cyclops
Album: Portrait of an American family
As tabbed by: Andrej "Oskar" Paulus

This song is realy easy to play, only solo is hard to hear, but I think he plays
E with some variations.

Intro:(repeat as many times as you need)
G-----------------------------------------------------
D-----------------------------------------------------
A-----------5---------5-----5-------------------------
E--5-5-5-5----5-5-5-5---5-5---------------------------

Verse:
G-----------------------------------------------------
D-----------------------------------------------------
A----------------7\----------------------------7\-----
E--0-0-0-0-1-0-------0-0-0-0-1-0--3--0-0-0-0-1--------
(Cyclops woman ...)

(continued)
G-----------------------------------------------------
D-----------------------------------------------------
A-----------------------------------------------------
E--0-0-0-0-1-0--4-------------------------------------

Chorus:(repeat as many times as you need)
G-----------------------------------------------------
D-----------------------------------------------------
A-----------------------------------------------------
E--5-5-5-5-5-5-5-5-5-5-5-5----------------------------
(She can't see nothin...)

Bridge:(repeat as many times as you need)
G-----------------------------------------------------
D-----------------------------------------------------
A-----------------------------------------------------
E--0-0-0-0-5-0-0-0-0-0--------------------------------

Solo:
G-----------------------------------------------------
D-----------------------------------------------------
A---7-7-7-7-7-7-8-7-7-7-7-7-8-7-7-7-7-7-8-------------
E-----------------------------------------------------

Intro
Verse
Chorus
Verse
Chorus
Bridge
Intro
Solo
Verse
Andrej

--

Almost there ...

Sign in to get your own page with links to favourite songs and more. You are just one click away...

Login with Facebook Login with Google