Log in

One click and you are in

Login with Facebook Login with Google

Why sign up and log in

Guitar Tabs Explorer
Marilyn Manson guitar tabs for Cupid carries a gun

Guitar tabs

Strum at the 22nd fret.

Tuning (eb A chord diagramA majorA A chord diagramD MajorD A chord diagramG MajorG A chord diagramBB A chord diagramE MajorE)



----|------------------------------------------------------------------|--|
----|-------0---------------0-------------0-------------0----3--0---0--|--|
----|-----1-----1---1-----2-----2-------3-----3---3--------------------|--|
----|-2-----------2---2-------------2-----------2---2------2------2----|--|
----|------------------------------------------------------------------|--|
----|------------------------------------------------------------------|--|


  Intro/Verse




----|-----0-0---0-0------3-3---3-3-------2-2---2-2-------------------|--|
----|-----0-0---0-0------3-3---3-3-------3-3---3-3-------------------|--|
----|-----1-1---1-1------2-2---2-2-------2-2---2-2-----------2-------|--|
----|-2------------------------------------------------------2---5---|--|
----|-2--------------------------------------------------2-2-0---5---|--|
----|----------------4---------------3---------------1---1-1-----4---|--|


  Chorus (Bass notes or riff)

Other versions of Cupid Carries A Gun

Cupid carries a gunChords

Almost there ...

Sign in to get your own page with links to favourite songs and more. You are just one click away...

Login with Facebook Login with Google