Log in

One click and you are in

Login with Facebook Login with Google

Why sign up and log in

Guitar Tabs Explorer
Marilyn Manson bass tabs for Coma white

Bass tabs

Intro:
G:-------------|------------|
D:-------------|------------|
A:-------------|------------|
D:-4***-/11***-|-10***-9**-|
Riff 1: (x35)
G:--------------|------------|
D:--------------|------------|
A:--------------|------------|
D:-2-4**-/11***-|-10***-9**-|


Riff 2: (x4)
G:--------------|------------|
D:--------------|------------|
A:--------------|------------|
D:-2-4--R--R--R-|-R--R--R--R-|


Riff 3: (x2)
G:------------|------------|
D:------------|------------|
A:-------0--0-|-------3--2-|
D:-4--4-------|-4--4-------|


Riff 4:
G:----------|----------|----------|----------|----------|----------|----------|----------|
D:----------|----------|----------|----------|----------|----------|----------|----------|
A:----------|-3*******-|----------|-3*******-|----------|----------|----------|----------|
D:-2*******-|----------|-2*******-|----------|-4*******-|-0*******-|-4*******-|-0*******-|


Riff 5:
G:------------|------------|
D:-4--3--2--1-|-0----------|
A:------------|----4--3--2-|
D:------------|------------|


Riff 2 (x4)

Riff 1 (x11)

Riff 3 (x2)

Riff 4 (x2)

Riff 5

End:
G:----------|
D:----------|
A:-1*******-|
D:----------|


Break till end

ⓘ Bass guitar tab for 'Coma White' by Marilyn Manson, a male industrial metal artist from Fort Lauderdale, Florida, USA. Marilyn Manson was born in 1989. Marilyn Manson is known for his weird metal music.

Almost there ...

Sign in to get your own page with links to favourite songs and more. You are just one click away...

Login with Facebook Login with Google