Log in

One click and you are in

Login with Facebook Login with Google

Why sign up and log in

Guitar Tabs Explorer
Marilyn Manson guitar tabs for Coma black

Guitar tabs with lyrics

Album: Holy Wood
As tabbed by Joe Muggah


Verse A chord diagramA majorA (Guitar 1)
e-3-----3-----3----3-----3-----3--------------------
B---5-----5-----5----5-----5-----5------------------
G-----4-----4----------4-----4----------------------
D---------------------------------------------------
A---------------------------------------------------
E---------------------------------------------------
("My mouth was a crib...")
Verse A chord diagramBB (Guitar 2, all notes 8 times faintly)
e---------------------------------------------------
B---------------------------------------------------
G--9-/-12---7---5---9-/-12---7---5------------------
D--x----x---x---x---x----x---x---x------------------
A--7-/-10---5---3---7-/-10---5---3------------------
E--0-/--0---0---0---0-/--0---0---0------------------


Pre-Chorus                              End on (2 times)
e--------------------------------------|-----------------
B-----0-1------1-0---------------------|-----------------
G------------------------2-0-----0---0-|-----0---2-0---0-
D---2--------2-------0-----------------|---2-------------
A-0--------0-----------0-----0h3---2---|-0-----0-----0---
E--------------------------------------|-----------------
("I burned all the good things...")


Chorus A chord diagramA majorA (Guitar 1, all notes hit 8 times)
e----------------------------------------------------
B----------------------------------------------------
G--------7--5---------7--5---------------------------
D--2--5--7--5---2--5--7--5---------------------------
A--2--5--5--3---2--5--5--3---------------------------
E--0--3---------0--3---------------------------------
("This was never my world...")

Verse 2A (Guitar 1)     Verse 2B (Guitar 2)
e---------------------|------------------------------
B-0----0----0---0-----|------------------------------
G---3----3----3---3---|------------------------------
D---------------------|------------------------------
A---------------------|--7-7-7-7-7-7-----------------
E---------------------|--0-0-0-0-0-0-----------------


Chorus A chord diagramBB (Guitar 2)
e-0--7--6^--7^----0--7--6^--7^-----------------------
B----------------------------------------------------
G----------------------------------------------------
D----------------------------------------------------
A----------------------------------------------------
E----------------------------------------------------


Verse 3A (Guitar 1)
*  7   8   7   8    7   8  4  3  8
e----------------------------------------------------
B----------------------------------------------------
G----------------------------------------------------
D----------------------------------------------------
A-15--14--15--14---12--10--3--5--7-------------------
E--0---0---0---0----0---0--0--0--0-------------------
("Her heart's a bloodstained egg...")
*The top numbers show how many times to hit that note


Verse 3B (Guitar 2)
e-------------------------------14^--14^--14^--------
B----------------------------------------------------
G-11-11-11-11-11-11--9-12-12-12----------------------
D----------------------------------------------------
A----------------------------------------------------
E----------------------------------------------------


Verse 3B (contined)
e----------------------------------------------------
B----------------------------------------------------
G-11-11-11-11-11-11--9-9-9--9--9---------------------
D----------------------------------------------------
A----------------------------------------------------
E----------------------------------------------------

a) Eden Eye

Verse 1A

Verse 1A, 1B

Pre-Chorus

Chorus A chord diagramA majorA

Verse 2A, 2B

Chorus A chord diagramA majorA

Pre-chorus

Chorus A, A chord diagramBB

b) Apple of Discord

Verse 3A, 3B

A chord diagramA majorA good song, but the pre-chorus is very hard to hear.

Other versions of Coma Black

Coma blackChords

Almost there ...

Sign in to get your own page with links to favourite songs and more. You are just one click away...

Login with Facebook Login with Google