Search tabs and chords

Search for song, artist or band

Log in

One click and you are in

Login with Facebook Login with Google

Why sign up and log in

Guitar Tabs Explorer
Marilyn Manson guitar tabs for Cake and sodomy

Guitar tabs

Album: Portrait of an American Family
As tabbed by Joe Muggah

\\ = pick slide
m = palm mute

Bass Intro
G----------------------------------------------------------
D--2-1-0---2-1-0---2-1-0---2-1-0---------------------------
A----------------------------------------------------------
E----------------------------------------------------------
("I am the God of Fuck...")

Intro
e----------------------------------------------------------
B----------------------------------------------------------
G----------------------------------------------------------
D--9-9\-----9-9\----9-9\-----------------------------------
A--9-9\-----9-9\----9-9\-----------------------------------
E--7-7\-----7-7\----7-7\---3-/7----------------------------

Verse 1
e---------10--10--10-10-10----------10--10--10-10-10-------
B----------------------------------------------------------
G----------------------------------------------------------
D--9-9\-----------------------9-9\-------------------------
A--9-9\-----------------------9-9\-------------------------
E--7-7\-----------------------7-7\-------------------------
("Virgins sold in quantity...")

(continued)
e----------------------------------------------------------
B-------------------------------------------(all x2 then:)-
G----------------------------------------------------------
D--9-9\-----9-------7m-------9-7--4m-------7m-5m/----------
A--9-9\-----9-(x6)--7m-(x4)--9-7--4m-(x5)--7m-5m/----------
E--7-7\-3/7-7-------5m-------7-5--2m-------5m-3m/----------

(continued)
e----------------------------------------------------------
B----------------------------------------------------------
G---------------------------------------------7------------
D--9-9\5/9-9-9-9-9-9-9-9-9--7-7-7-7-7\5/7--4--7------------
A--9-9\5/9-9-9-9-9-9-9-9-9--7-7-7-7-7\5/7--4--5------------
E--7-7\3/7-7-7-7-7-7-7-7-7--5-5-5-5-5\3/5--2---------------

(continued)
e----------------------------------------------------------
B-----------12-12-12-12-12-12\-10-10-10\5/7-7-7-7----------
G-----------11-11-11-11-11-11\--9--9--9\4/6-6-6-6--7-7-----
D--9-9-x-x---9--9--9--9--9--9\--7--7--7\2/4-4-4-4--7-7--7\-
A--9-9-x-x-----------------------------------------5-5--7\-
E--7-7-x-x----------------------------------------------5\-

Chorus
e--------------------14^-----------------------------------
B--------------------14^-----------------------------------
G------------------------------------------------------7---
D--9-9-x-x-x-x--7-7------4-4-4-4-2-4-4-4--7m-7m-7m-7m--7---
A--9-9-x-x-x-x--7-7------4-4-4-4-2-4-4-4--7m-7m-7m-7m--5---
E--7-7-x-x-x-x--5-5------2-2-2-2-0-2-2-2--5m-5m-5m-5m------
("White Trash get down on your knees...")

(continued)
e----------------------------------------------------------
B---------------12\10-10\----------------------------------
G------\\-------11\-9--9\------------------7-7-7-7---------
D--9-9-\\--7-7---9\-7--9\--4-4-4-4-2-4-4-4-7-7-7-7-9\7-7/9-
A--9-9-\\--7-7-------------4-4-4-4-2-4-4-4-5-5-5-5-9\7-7/9-
E--7-7-----5-5-------------2-2-2-2-0-2-2-2---------7\5-5/7-

Verse 2
e----------------19---------17-----------------------------
B--------17--19------15--17-----------------(all x2 then:)-
G------------------------------11--14-x-14\----------------
D--9-9\----------------------------------------------------
A--9-9\----------------------------------------------------
E--7-7\----------------------------------------------------
("VCR's and vaseline...")

(continued)
e--------15--19--15^-----------19------------24------------
B--------17--17--17^--------------19------------24---------
G----------------------------------------------------------
D--9-9\----------------7m---------------4----------(all x3)
A--9-9\----------------7m-(x6)----------4-(x6)-------------
E--7-7\----------------5m---------------2------------------

(continued)
e--------14----14^-----------------------------------------
B--------15----15^--10-10-10-10\--7-7-7-7------------------
G-----------12-------9--9--9--9\--6-6-6-6--7-7-------------
D--9-9\--------------7--7--7--7\--4-4-4-4--7-7--7-\--/-----
A--9-9\------------------------------------5-5--7-\--/-----
E--7-7\-----------------------------------------5-\--/-----

Bridge
e----------------------------------------------------------
B----------------------------------------------------------
G----------------------------------------------------------
D--4-4-4-4-4-4/7-7-7-7-7\5-7\5--4-4-4-4-4-4/7-7-7-7-7/9-9--
A--4-4-4-4-4-4/7-7-7-7-7\5-7\5--4-4-4-4-4-4/7-7-7-7-7/9-9--
E--2-2-2-2-2-2/5-5-5-5-5\3-5\3--2-2-2-2-2-2/5-5-5-5-5/7-7--

(continued)
e----------------------------------------------------------
B--7-7-7-7-7/10-10-10-10-10-10\7-7-7\--7/10-10-10-10-10-10-
G--6-6-6-6-6/-9--9--9--9--9--9\6-6-6\--6/-9--9--9--9--9--9-
D--4-4-4-4-4/-7--7--7--7--7--7\4-4-4\--4/-7--7--7--7--7--7-
A----------------------------------------------------------
E----------------------------------------------------------

(continued)
e------8-8----------12-12----------------------------------
B--7-7-7-7-7--10-10-10-10-10--7-7-7-7-7--10-10-10-10-10----
G--6-6-6-6-6---9--9--9--9--9--6-6-6-6-6---9--9--9--9--9----
D--4-4-4-4-4---7--7--7--7--7--4-4-4-4-4---7--7--7--7--7----
A----------------------------------------------------------
E----------------------------------------------------------


Bass Intro
Bass Intro, Intro
Bass Intro
Verse 1
Bass Intro
Verse 2
Chorus
Bridge
Chorus

Almost there ...

Sign in to get your own page with links to favourite songs and more. You are just one click away...

Login with Facebook Login with Google