Search tabs and chords

Search for song, artist or band

Log in

One click and you are in

Login with Facebook Login with Google

Why sign up and log in

Guitar Tabs Explorer
Marilyn Manson bass tabs for Cake and sodomy

Bass tabs

Song name: Cake and sodomy
Album: Portrait of an American family
As tabbed by: Andrej "Oskar" Paulus

Notes in the brackets are notes that are played like a bridge to the other note.

Intro: (play as many times as it need)
G--------------------------------------------------------------
D--------------------------------------------------------------
A--------------------------------------------------------------
E-3-2-1-0--3-2-1-0--3-2-1-0--3-2-1-0--3-2-1-0--3-2-1-0--3-2-1-0

Verse 1:
G--------------------------------------------------------------
D--------------------------------------------------------------
A--------------------------------------------------------------
E--7-7\3-----------------------------7-7\3---------------------
(Virgins sold in...)

Interlude:
G--------------------------------------------------------------
D--------------------------------------------------------------
A--------------------------------------------------------------
E--7-7\3---7-7-7-7-7-7-7-7-(0)-5-5-5-5-5--7-5\3--2-2-2-2--5-3--

Verse 2:                                                        end on
G--------------------------------------------------------------|------
D--------------------------------------------------------------|------
A--------------------------------------------------------------|------
E--7-7\3--7-7-7-7-7-7-7-7-(0)-5-5-5-5-5--2-2-2-2--10-10--------|-5----
(Pornonation...)

Chorus:

G----------------------------------------------------------
D--------------------------------------------------9-9-9-7-
A-------------9--------------------------------------------
E--7-7\3--5-5-----2-2-2-2-0-2-2-2-5-5---7-7\3--5-5---------
(white tras get...)

(continued)            end on
G---------------------|------------------------------------
D---------------------|------------------------------------
A---------------------|------------------------------------
E-2-2-2-2-0-2-2-2-5-5-|--7---------------------------------

Solo:(play as many times as it need)
G--------------------------------------------------------------
D--------------------------------------------------------------
A--------------------------------------------------------------
E--2-2-2-2-5-5-5-5-(0)-----------------------------------------

Intro
Verse 1
Interlude 2x
Verse 2 2x
Chorus 2x
Intro
Verse 1
Interlude 3x
Verse 2
Chorus 2x
Solo
Chorus 2x

Questions, mistakes, opinions at andrej_paulus@net.hr
Andrej

--

Almost there ...

Sign in to get your own page with links to favourite songs and more. You are just one click away...

Login with Facebook Login with Google