Search tabs and chords

Search for song, artist or band

Log in

One click and you are in

Login with Facebook Login with Google

Why sign up and log in

Guitar Tabs Explorer
Marilyn Manson bass tabs for Cake and sodamy

Bass tabs

Intro
G|------------------------------|
D|------------------------------|
A|------------------------------|
E|--2--1--0--2--1--0--2--1--0---|

Verse
G|----------|
D|----------|
A|----------|
E|---7--7/0-|

Chorus
G|----------------------------------------------------|
D|--------------------*hold this note for 2 beats-----|
A|--------------------5-------------------------------|
E|--7-7--x-x-x-x-5-5------2-2-2-2-2-2-5-5-5-5-5-5-5-5-|

G|------------------------------------------------------|
D|------------------------------------------------------|
A|------/////////----7---5------------------------------|
E|--7-7----------5-5--------2-2-2-2-2-2-5-5-5-5-5-5-5-5-|

alternate these riffs

bass during solo
G|--------------------------------|
D|--------------------------------|
A|--------------------------------|
E|--2-2-2-2-2-2-5-5-5-5-5-5-5-5-0-|

G|--------------------------------|
D|--------------------------------|
A|--------------------------------|
E|--2-2-2-2-2-2-5-5-5-5-5-5-5-5-7-|



************************************

| /  Slide up
| x  Dead note

************************************

Almost there ...

Sign in to get your own page with links to favourite songs and more. You are just one click away...

Login with Facebook Login with Google