Search tabs and chords

Search for song, artist or band

Log in

One click and you are in

Login with Facebook Login with Google

Why sign up and log in

Guitar Tabs Explorer
Marilyn Manson guitar tabs for Breaking the same old ground (Ver. 2)

Breaking The Same Old Ground tab by Marilyn Manson (Ver. 2)

Marilyn Manson guitar tabs for Breaking the same old ground (Ver. 2)

Guitar tabs

Intro/Verses
       A chord diagramDmDm               A chord diagramFF                 A chord diagramA#A#               A chord diagramG minorGm
   e|---1-----1-----1----1------1-----1---------------------3-----3-----3--------|
   B|-----3-----3----------1------1--------3-----3-----3------3-----3------------|
   G|-------2-----2----------2------2--------3-----3------------3-----3----------|
   D|-0----------------3-----------------------3-----3----5----------------------|
   A|------------------------------------1---------------------------------------|
   E|----------------------------------------------------------------------------|

   Choruses

       A chord diagramB minorBm              A chord diagramG MajorG                       A chord diagramF# minorF#m (I think)   A chord diagramA majorA       A chord diagramA#A#
   e|---------------------------------------------------------------------------|
   B|-3-3-3-3-3-3-3-3-3-3-3-3-3-3-3-3---------2-2-2-2-2-2-2-2-5-5-5-5-5-5-5-5---|
   G|-4-4-4-4-4-4-4-4-4-4-4-4-4-4-4-4---------2-2-2-2-2-2-2-2-6-6-6-6-6-6-6-6---|
   D|-4-4-4-4-4-4-4-4-5-5-5-5-5-5-5-5-x3-Then-4-4-4-4-4-4-4-4-7-7-7-7-8-8-8-8---|
   A|-2-2-2-2-2-2-2-2-5-5-5-5-5-5-5-5---------4-4-4-4-4-4-4-4-7-7-7-7-8-8-8-8---|
   E|-----------------3-3-3-3-3-3-3-3---------2-2-2-2-2-2-2-2-5-5-5-5-6-6-6-6---|

   (note: Chorus also sounds find played with power chords. In fact, I honestly can't tell
   whether Twiggy is playing what I have tabbed above or just power chords.)

   Bridge (the part where he whispers the verse)
       A chord diagramDmDm         A chord diagramFF           A chord diagramA#A#          A chord diagramG minorGm
   e|-----1----------------------------------3----------------------------------|
   B|---3---3--------1-----------3---------3---3--------------------------------|
   G|--------------2---2-----------3-----3--------------------------------------|
   D|-0----------3-------------3------------------------------------------------|
   A|------------------------1--------------------------------------------------|
   E|---------------------------------------------------------------------------|

   Shhhhh
       A chord diagramB minorBm              A chord diagramG minorGm
   e|---------------------------------------------------------------------------|
   B|-3-3-3-3-3-3-3-3-3-3-3-3-3-3-3---------------------------------------------|
   G|-4-4-4-4-4-4-4-4-3-3-3-3-3-3-3---------------------------------------------|
   D|-4-4-4-4-4-4-4-4-5-5-5-5-5-5-5-x4------------------------------------------|
   A|-2-2-2-2-2-2-2-2-5-5-5-5-5-5-5---------------------------------------------|

Other versions of Breaking The Same Old Ground

Breaking the same old groundTabs

Almost there ...

Sign in to get your own page with links to favourite songs and more. You are just one click away...

Login with Facebook Login with Google