Log in

One click and you are in

Login with Facebook Login with Google

Why sign up and log in

Guitar Tabs Explorer
Marilyn Manson guitar chords for Astonishing panorama of the endtimes

Astonishing Panorama Of The Endtimes chords by Marilyn Manson

Marilyn Manson guitar chords for Astonishing panorama of the endtimes

Guitar chords

Astonishing Panorama of the Endtimes
By Marilyn Manson
>From the CD Last Tour on Earth
Transcribed by Dan

Drop A chord diagramD MajorD tuning
Heavy distortion

Riff 1 (Verse Riff)

e-------------------------------|
b-------------------------------|
g-------------------------------|
d-2-2-2-2-2-2-2-2-2-2-2-5-7-8-2-|
a-2-2-2-2-2-2-2-2-2-2-2-5-7-8-2-|
e-2-2-2-2-2-2-2-2-2-2-2-5-7-8-2-|
  <-----Palm muted--->

Riff 2 (Chorus Riff)

e---------|-------------|---------|------------
b---------|-------------|---------|------------
g---9-----|---9---------|---9-----|---9--------
d-2-9-8/7-|-2-9-8/7-5-2-|-2-9-8/7-|-2-9-5-7-8-2
a-2-7-8/7-|-2-7-8/7-5-2-|-2-7-8/7-|-2-7-5-7-8-2
e-2---8/7-|-2---8/7-5-2-|-2---8/7-|-2---5-7-8-2

Riff 3 ("Kill your God…")

e-------------|
b-------------|
g-------------|
d-0-0-0-0-1-2-|
a-0-0-0-0-1-2-|
e-0-0-0-0-1-2-|

Riff 4 ("This is what you should feel…")
(not quite sure how this part goes, be creative)

e---------|--------------|
b---------|--------------|
g---------|--------------|
d-5-4-3-2-|-5-4-2-4-5-2--|
a-5-4-3-2-|-5-4-2-4-5-2--|
e-5-4-3-2-|-5-4-2-4-5-2--|
      palm muted

Order of parts (not exact, but close)

Riff 1 -7x
Riff 2 –1x
Riff 1 –4x
Riff 2 –2x
Riff 3 –4x
Riff 1 –6x
Riff 2 –2x
Riff 3 –3x
Riff 1 –4x
Riff 4 -?
Riff 1 –9x   (solo going on at same time)
Riff 2 –2x

This is the basic stuff, I have no idea how the solo goes. But it sounds
alright I think.
Questions, improvements
(killerklownfromouterspace@hotmail.com)

Other versions of Astonishing Panorama Of The Endtimes

Astonishing panorama of the endtimesTabs

Almost there ...

Sign in to get your own page with links to favourite songs and more. You are just one click away...

Login with Facebook Login with Google