Search tabs and chords

Search for song, artist or band

Log in

One click and you are in

Login with Facebook Login with Google

Why sign up and log in

Guitar Tabs Explorer
Marilyn Manson bass tabs for Astonishing panorama of the endtimes

Astonishing Panorama Of The Endtimes bass tab by Marilyn Manson

Marilyn Manson bass tabs for Astonishing panorama of the endtimes

Bass tabs

Drop D tuning

Intro
G|---------------------------------|---------------------------------||
D|-2-2-2-2-2-2-2-2-----------------|-2-2-2-2-2-2-2-2-----------------|| x3
A|-----------------1-1-0-0---------|-----------------1-1-0-0---------||
D|-------------------------5-5-2-2-|-------------------------5-5-2-2-||

G|---------------------------------|---------------------------------||
D|-2-2-2-2-2-2-2-2-----------------|-2-2-2-2-2-2-2-2-----------------||
A|-----------------1-1-0-0---------|---------------------2-2-3-3-----||
D|-------------------------5-5-2-2-|-----------------5-5---------2-2-||

G|---------------------------------|---------------------------------||
D|---------------------------------|---------------------------------|| x4
A|---------------------------------|---------------------------------||
D|-2-2-2-2-2-2-2-2-2-2-2-2-2-2-2-2-|-2-2-2-2-2-2-2-2-2-2-2-2-2-2-2-2-||

Verse
G|---------------------------------|---------------------------------||
D|---------------------------------|---------------------------------|| x4
A|---------------------------------|---------------------------------||
D|-2-2-2-2-2-2-2-2-2-2-2-2-2-2-2-2-|-2-2-2-2-2-2-2-2-2-2-2-2-2-2-2-2-||

Break
G|--------------|--------------|-------------|--------------||
D|--------------|--------------|-------------|--------------||
A|----7---------|---7----------|---7---------|---7----------||
D|-2-----8-7--2-|-2----8-7-5-2-|-2----8-7--2-|-2----8-7-5-2-||

Verse
G|---------------------------------|---------------------------------||
D|---------------------------------|---------------------------------|| x4
A|---------------------------------|---------------------------------||
D|-2-2-2-2-2-2-2-2-2-2-2-2-2-2-2-2-|-2-2-2-2-2-2-2-2-2-2-2-2-2-2-2-2-||

Pre-Chorus
G|--------------|--------------|-------------|--------------||
D|--------------|--------------|-------------|--------------|| x2
A|----7---------|---7----------|---7---------|---7----------||
D|-2-----8-7--2-|-2----8-7-5-2-|-2----8-7--2-|-2----8-7-5-2-||

Chorus
G|---|------|---|------||
D|---|------|---|------|| x2
A|-5-|-6--7-|-5-|-6--7-||
D|---|------|---|------||

Post Chorus
G|---------------------------------|---------------------------------||
D|---------------------------------|---------------------------------|| x3
A|---------------------------------|---------------------------------||
D|-2-2-2-2-2-2-2-2-2-2-2-2-2-2-2-2-|-2-2-2-2-2-2-2-2-2-2-2-2-2-2-2-2-||

G|---------------------------------|------------||
D|---------------------------------|------------||
A|---------------------------------|-----1-2----||
D|-2-2-2-2-2-2-2-2-2-2-2-2-2-2-2-2-|-2--------2-||

Verse
G|---------------------------------|---------------------------------||
D|---------------------------------|---------------------------------|| x4
A|---------------------------------|---------------------------------||
D|-2-2-2-2-2-2-2-2-2-2-2-2-2-2-2-2-|-2-2-2-2-2-2-2-2-2-2-2-2-2-2-2-2-||

Pre-Chorus
G|--------------|--------------|-------------|--------------||
D|--------------|--------------|-------------|--------------|| x2
A|----7---------|---7----------|---7---------|---7----------||
D|-2-----8-7--2-|-2----8-7-5-2-|-2----8-7--2-|-2----8-7-5-2-||

Chorus
G|---|------|---|------||
D|---|------|---|------|| x2
A|-5-|-6--7-|-5-|-6--7-||
D|---|------|---|------||

Interlude
G|---------------------------------|---------------------------------||
D|---------------------------------|---------------------------------|| x4
A|---------------------------------|---------------------------------||
D|-2-2-2-2-2-2-2-2-2-2-2-2-2-2-2-2-|-2-2-2-2-2-2-2-2-2-2-2-2-2-2-2-2-||

Breakdown
G|--------------||
D|-REST-10-BARS-||
A|--------------||
D|--------------||

G|-----------------|-----------------||
D|-----------------|-----------------|| x3
A|-----------------|-----------------||
D|-5-4-3-2-5-4-3-2-|-5-4-3-2-5-2-2-2-||

G|-R-||
D|-E-||
A|-S-||
D|-T-||

Guitar Solo
G|---------------------------------|---------------------------------||
D|---------------------------------|---------------------------------|| x8
A|---------------------------------|---------------------------------||
D|-2-2-2-2-2-2-2-2-2-2-2-2-2-2-2-2-|-2-2-2-2-2-2-2-2-2-2-2-2-2-2-2-2-||

Out-Chorus
G|-------------||
D|-REST-8-BARS-||
A|-------------||
D|-------------||

G|---------------------------------|---------------------------------||
D|-2-2-2-2-2-2-2-2-----------------|-2-2-2-2-2-2-2-2-----------------|| x3
A|-----------------1-1-0-0---------|-----------------1-1-0-0---------||
D|-------------------------5-5-2-2-|-------------------------5-5-2-2-||

G|---------------------------------|---------------------------------||
D|-2-2-2-2-2-2-2-2-----------------|-2-2-2-2-2-2-2-2-----------------||
A|-----------------1-1-0-0---------|---------------------2-2-3-3-----||
D|-------------------------5-5-2-2-|-----------------5-5---------2-2-||

Outro
G|--------------|--------------|-------------|--------------||
D|--------------|--------------|-------------|--------------||
A|----7---------|---7----------|---7---------|---7----------||
D|-2-----8-7--2-|-2----8-7-5-2-|-2----8-7--2-|-2----8-7-5-2-||

G|--------------|--------------|-------------|---||
D|--------------|--------------|-------------|---||
A|----7---------|---7----------|---7---------|---||
D|-2-----8-7--2-|-2----8-7-5-2-|-2----8-7--2-|-2-||

Almost there ...

Sign in to get your own page with links to favourite songs and more. You are just one click away...

Login with Facebook Login with Google