Search tabs and chords

Search for song, artist or band

Log in

One click and you are in

Login with Facebook Login with Google

Why sign up and log in

Guitar Tabs Explorer
Marilyn Manson guitar tabs for Astonishing panorama of the end times

Astonishing Panorama Of The End Times tab by Marilyn Manson

Marilyn Manson guitar tabs for Astonishing panorama of the end times

Guitar tabs with lyrics

Tuning: Standard (E chord diagramEE A chord diagramAA D chord diagramDD G chord diagramGG B chord diagramBB E chord diagramEE)

Difficulty: Intermediate

MAR1LYN MAN5ON
"astonshinf panorama of the endtimes"

intro riff/         verse riff
e|---------------|---------------|
B|---------------|:-------------:|
G|---------------|---------------|
D|-2-------5-7-8-|-2------5-7-8--|
A|-2-2-xs--5-7-8-|-2-2-xs-5-7-8--|
E|-0-0-----3-5-6-|-0-0----3-5-6--|

prechorus/post chorus riff

e|------------------------|---------------------------|
B|------------------------|---------------------------|
G|---9----------9---------|----9-----------9----------|
D|---9-8-7------9-------2-|----9-----------9-5-7-8-2--|
A|-2-7-8-7-2----7-8-7-5-2-|----7------2----7-5-7-8-2--|
E|-0---6-5-0--0---6-5-3-0-|--0---6-5--0--0---3-5-6-0--|


chorus "kill your god"     then play prechorus riff

e|-------------------||----------------------------|
B|:-----------------:||----------------------------|
G|-------------------||----9-----------------------|
D|--5---7---8--------||----9--------9--------------|
A|--------------7----||-2--7-8-7-2--7-8-7-5-2-etc--|
E|--3---5---6---0----||-0----6-5-0----6-5-3-0------|

break riff     then intro  e xs   pre solo riff

e|:-----------:|         |------|:-------------------------------:|
B|-------------|         |------|---------------------------------|
G|-------------|         |------|---------------------------------|
D|-7-----8--9--|         |------|---------------------------------|
A|-5-----6--7--|         |-2-xs-|---------------------------------|
E|-5-----6--7--|         |-0----|-3-2-1-0-3-2-1-0-3-2-1-2-3-0-0-0-|

 solo    (most solo bars played kinda fast)
      (hold bend) (noises w tremolo)      sweep+tap
e|---------------------------|----------------14-T22p(14)----------|:-------T---:|:-11h12h18p12-:|
B|-------------(8)*~~~~~-----|---------------12-------h12\10p8p7---|-11p12h17p12-|-------T-------|
G|---------------------------|-12~-11~-10~--12------------------9\-|-------------|---------------|
D|-3b*~^~^~^~----------------|-------------14----------------------|-------------|---------------|
A|---------------------------|-------------------------------------|-------------|---------------|
E|---------------------------|-------------------------------------|-------------|---------------|

e|----12-15-18-17-15-|:-12-18-17-15-:|-12-18-17-15-|-17-15-12-18-17-15-12-12~~-|-----|-12-18-17-15-12-12-12-|
B|-12----------------|---------------|-------------|---------------------------|-x-x-|----------------------|
G|-------------------|---------------|-------------|---------------------------|-x-x-|----------------------|
D|-------------------|---------------|-------------|---------------------------|-X-x-|----------------------|
A|-------------------|---------------|-------------|---------------------------|-x-x-|----------------------|
E|-------------------|---------------|-------------|---------------------------|-x-x-|----------------------|

OR SOLO
alt version solo after 1st bar
                                     h&p&T       h&p&T             : repeat xs :

e|------------7-22-7--------------|:--------:|:-11-12-18-:|---12-15-18-17-15-12-18-17-15-12-18-17-15-12-etc-|
B|-12~11~10~-8------10-8-7--------|-11-12-17-|------------|-12----------------------------------------------|
G|----------9--------------9------|----------|------------|-------------------------------------------------|
D|----------------------------3V--|----------|------------|-------------------------------------------------|
A|--------------------------------|----------|------------|-------------------------------------------------|
E|--------------------------------|----------|------------|-------------------------------------------------|

e|-------|-12-18-17-15-12-12-12------|
B|-------|---------------------------|
G|-------|---------------------------|
D|-x-x---|---------------------------|
A|-x-x---|---------------------------|
E|-x-x---|---------------------------|

h hammer on
p pull off
T tap with pickin hand
b bend
^ hold bend
~ tremolo
V trem dive bomb
xs repeat note
/ slide
:: repeat mesure/bars

Almost there ...

Sign in to get your own page with links to favourite songs and more. You are just one click away...

Login with Facebook Login with Google