Log in

One click and you are in

Login with Facebook Login with Google

Why sign up and log in

Guitar Tabs Explorer
Marilyn Manson tabs for Apple of sodom

Guitar tabs

Album: "Lost Highway" Soundtrack
As tabbed by Joe Muggah


Verse A chord diagramA augmentedA (Guitar 1)
e----------------------------------------------------------
B----------------------------------------------------------
G----------------------------------------------------------
D--7-7-7-7-8-7-5-7-7--7-7-7-7-10-10-8-7-7------------------
A--0-0-0-0-0-0-0-0-0--0-0-0-0--0--0-0-0-0------------------
E----------------------------------------------------------
("I found the center...")
Verse A chord diagramBB (Synthasizer for Guitar 2)
e--5----3----6----5----------------------------------------
B--3-------------------------------------------------------
G--2-------------------------------------------------------
D--0-------------------------------------------------------
A----------------------------------------------------------
E----------------------------------------------------------


Bridge
e------5--------5--------5--------5---------4--------4-----
B--4-4----4-4-4----4---4----4-4-4----4--3-3----3-3-3-------
G----------------------------------------------------------
D----------------------------------------------------------
A----------------------------------------------------------
E----------------------------------------------------------

(continued)
e--------4--------4----------------------------------------
B--3---3----3-3-3------------------------------------------
G----------------------------------------------------------
D----------------------------------------------------------
A----------------------------------------------------------
E----------------------------------------------------------


Outro
e--5\4\3/5^-----5\4\3/5^-----------------------------------
B----------------------------------------------------------
G----------------------------------------------------------
D----------------------------------------------------------
A----------------------------------------------------------
E----------------------------------------------------------


Verse A chord diagramA augmentedA

Verse A, A chord diagramBB

Bridge

Verse A chord diagramA augmentedA

Verse A, A chord diagramBB

Verse A, B, Outro

Almost there ...

Sign in to get your own page with links to favourite songs and more. You are just one click away...

Login with Facebook Login with Google