Search tabs and chords

Search for song, artist or band

Log in

One click and you are in

Login with Facebook Login with Google

Why sign up and log in

Guitar Tabs Explorer
Marilyn Manson guitar chords for Antichristsuperstar

Antichristsuperstar chords by Marilyn Manson

Marilyn Manson guitar chords for Antichristsuperstar

Guitar chords with lyrics

Marilyn Manson:  Antichrist Superstar (Album version)
Tabbed by Rew, rew190@yahoo.com
This is all my own work.

Here's another one the community has wrong, all the
tabs I've seen are in the wrong
key!  Once again, I'm assuming you know the song
already so I won't get into the
gory details.  Now it's a little tricky to hit all of
those notes right, I do
something wierd where on the b5 I use my pinky for the
fifth and then when I switch
to the d5 I use my middle finger on that fifth.  It's
weird, but that's how it's
done.  I've seen the videos and watched John5 do it a
couple times live.

X = Muted
b = Bend
Standard Tuning


[Intro, Middle]
---------------------------------------
---------------------------------------
--4--4--4--4--4--4--4--4--4------------
--2--2--2--2--2--2--2--2--2------------
---------------------------------------
     Hey!  Hey!  Hey!  Hey!  etc.


[Repeat as necessary]
---------------------------------------
--------------5(b)---------------------
--------2-----2(b)---------------------
--4--4--0--4---------------------------
--2--2-----2---------------------------
---------------------------------------


---------------------------------------
---------------------------------------
--------2-----5--4--2------------------
--4--4--0--4--3--2--0------------------
--2--2-----2---------------------------
---------------------------------------


["You cut the head off"]
-----------------------------------------------
-----------------------------------------------
--------------------------------2--------2-----
--4--4--4--4--3--3--2--2--4--4--0--4--4--0--4--
--5--5--5--5--4--4--3--3--2--2-----2--2-----2--
-----------------------------------------------

And that, my friends, is ALL you need to know.  Have fun!

Almost there ...

Sign in to get your own page with links to favourite songs and more. You are just one click away...

Login with Facebook Login with Google