Log in

One click and you are in

Login with Facebook Login with Google

Why sign up and log in

Guitar Tabs Explorer
Marilyn Manson guitar tabs for Antichrist superstar

Guitar tabs

Album: Antichrist Superstar

Key: b =3D bend
    ( )=3D additional notes
Intro:
e-------------
B-------------
G-------------
D--4-4--------
A--4-4-HEY!---
E--2-2--------


Pre-verse/chorus:

      3 times             Fill
e-------------------|-----------------|
B-------------------|-----------------|
G-------2-----5b----|------2---5-4-2--|
D--4-4--2--4--2b----|--4-4-2-4-5-4-2--|
A--4-4--0--4--------|--4-4-0-4-3-2-0--|
E--2-2-----2--------|--2-2---2--------|
'Repent...'


Verse:
e--------------|
B--------------|
G-------2------|
D--4-4--2--4---|
A--4-4--0--4---|
E--2-2-----2---|
'You...'

Chorus:
e--------------------------|
B--------------------------|
G--------------------------|
D--4-4-4-4--3-(3)--2-(2)---|
A--5-5-5-5--4-(4)--3-(3)---|
E--------------------------|
'Cut the head off...'

e-------------------------|
B-------------------------|
G-------2-------2---------|
D--4-4--2--4--4-2-4-------|
A--4-4--0--4--4-0-4-------|
E--2-2-----2--2---2-------|


Song structure:


Intro x8

Pre-verse/chorus x2

Verse x16

Pre-verse/chorus x2

Chorus x4
Fill x4

Verse x16

Pre-verse/chorus x2

Chorus x4

Intro x16

Chorus x8

Intro x16

The solo is done by Pogo on the keyboard, so there's no need to tab it.
This is a kick-ass song, I prefer the live version on 'The Last Tour On =
Earth' rather then the studio-thing on 'AS'.

Almost there ...

Sign in to get your own page with links to favourite songs and more. You are just one click away...

Login with Facebook Login with Google