Log in

One click and you are in

Login with Facebook Login with Google

Why sign up and log in

Guitar Tabs Explorer
Marilyn Manson bass tabs for Antichrist superstar

Antichrist Superstar bass tab by Marilyn Manson

Marilyn Manson bass tabs for Antichrist superstar

Bass tabs

Album: Antichrist Superstar

Tabbed by Kristof Smits

Key: ( ) =3D additional notes
Intro:
G------------|
D------------|
A------HEY!--|
E--2-2-------|


Pre-verse/chorus:

     3 times         Fill
G-------------------|-----------------|
D-------------2-----|-----------------|
A-------0-----------|------0---3-2-0--|
E--2-2-----2--------|--2-2---2--------|
'Repent...'


Verse:
G-----------|
D-----------|
A------0----|
E--2-2---2--|
'You...'


Chorus:
G--------------------------|
D--------------------------|
A--5-5-5-5--4-(4)--3-(3)---|
E--------------------------|
'Cut the head off'

G-------------------------|
D-------------------------|
A-------0---------0-------|
E--2-2-----2----2---2-----|


Song structure:


Intro x8

Pre-verse/chorus x2

Verse x16

Pre-verse/chorus x2

Chorus x4
Fill x4

Verse x16

Pre-verse/chorus x2

Chorus x4

Intro x16

Chorus x8

Intro x16


Just the same as the guitar-parts, not that hard to play, but fun =
enough!

Almost there ...

Sign in to get your own page with links to favourite songs and more. You are just one click away...

Login with Facebook Login with Google