Search tabs and chords

Search for song, artist or band

Log in

One click and you are in

Login with Facebook Login with Google

Why sign up and log in

Guitar Tabs Explorer
Marilyn Manson guitar tabs for A place in the dirt

Guitar tabs

Album: Holy Wood
As tabbed by Joe Muggah

Intro (Synthasizer arranged for Guitar 1)
e-*19-----*14------19------14---------------------
B-------------------------------------------------
G-------------------------------------------------
D-------------------------------------------------
A-------------------------------------------------
E-------------------------------------------------
* These notes are really an octave higher, and
  can't be played on guitar.

Verse 1 (Synthasizer arranged for Guitar 1)
e--------------------------19--17--15--14---------
B-12---------12-----------------------------------
G------11----------11-----------------------------
D-------------------------------------------------
A-------------------------------------------------
E-------------------------------------------------
("We are damned and we are dead...")

Verse 2A (Guitar 1, all chords hit 8 times)
e-2----2----2----2----2----0----3----2------------
B-3----2----3----2----3----2----0----2------------
G-4----3----4----3----4----2----0----3------------
D-4----4----4----4----4----2----0----4------------
A-2----4----2----4----2----0----2----4------------
E------2---------2--------------3----2------------

Verse 2B (Synthasizer arranged for Guitar 2)
e-19---17---15---14--------------------------------
B--------------------------------------------------
G--------------------------------------------------
D--------------------------------------------------
A--------------------------------------------------
E--------------------------------------------------

Verse 2C (Guitar 3)                         Fill
e----------------------------------------|---------
B-----12-12-------12-12-------12-12------|---------
G-11----------11----------11-------------|---------
D----------------------------------------|---------
A----------------------------------------|---------
E----------------------------------------|--1/2----

Chorus (Guitar 1, all chords hit 10 times)
e--------------------------------------------------
B--------------------------------------------------
G--------------------------------------------------
D--5----8----5----8----5----8----5----4------------
A--5----8----5----8----5----8----5----4------------
E--3----6----3----6----3----6----3----2------------
("Put me in the motorcade...")

Intro
Verse 1
Verse 2A
Verse 2A, 2B, 2C
Chorus
Verse 2A
Verse 2A, 2B
Fill, Chorus
Verse 2A

Other versions of A Place In The Dirt

A Place in The DirtChords
A Place in The Dirt AcousticChords

Almost there ...

Sign in to get your own page with links to favourite songs and more. You are just one click away...

Login with Facebook Login with Google