Log in

One click and you are in

Login with Facebook Login with Google

Why sign up and log in

Guitar Tabs Explorer
Marilyn Manson bass tabs for A place in the dirt

A Place In The Dirt bass tab by Marilyn Manson

Marilyn Manson bass tabs for A place in the dirt

Bass tabs

Track 9 from Holywood (In the Shadow of the Valley of Death) - A Place in the Dirt


Tuning - Standard

            Intro
G |--------------------------|
D |--------------------------| X7
A |--2--2--2--2--2--2--2--2--|
E |--------------------------|

             Verse
G |--------------------------|-----------------------|
D |--------------------------|-----------------------| X2
A |--2--2--2--2--2--2--2--2--|-----------------------|
E |--------------------------|--2--2--2--2--2--2--2--|

G |--------------------------|--------------------------|--------------------------|
D |--------------------------|--------------------------|--------------------------|
A |--2--2--2--2--2--2--2--2--|--0--0--0--0--0--0--0--0--|--------------------------|
E |--------------------------|--------------------------|--3--3--3--3--3--3--3--3--|

G |--------------------------|
D |--------------------------|
A |--------------------------|
E |--2--2--2--2--2--2--2--2--|

                              Chorus
G |----------------------------------|--------------------------------|
D |----------------------------------|--------------------------------| X3
A |----------------------------------|--1------1-1---1-1---1-1-----1--|
E |--3------3-3---3-3-----3-3-----3--|--------------------------------|

G |----------------------------------|---------------------------------|
D |----------------------------------|---------------------------------|
A |----------------------------------|---------------------------------|
E |--3------3-3---3-3-----3-3-----3--|--2---2---2--2---2--2---2--2--2--|

                            Verse II
G |-------------------|-------------------|-------------------|-------------------|
D |-------------------|-------------------|-------------------|-------------------|
A |--2-2-2-2-2-2-2-2--|-------------------|--2-2-2-2-2-2-2-2--|-------------------|
E |-------------------|--2-2-2-2-2-2-2-2--|-------------------|--2-2-2-2-2-2-2-2--|

G |-------------------|-------------------|-------------------|
D |-------------------|-------------------|-------------------|
A |--2-2-2-2-2-2-2-2--|--0-0-0-0-0-0-0-0--|-------------------|
E |-------------------|-------------------|--3-3-3-3-3-3-3-3--|

                             Chorus 2
G |----------------------------------|--------------------------------|
D |----------------------------------|--------------------------------| X3
A |----------------------------------|--1------1-1---1-1---1-1-----1--|
E |--3------3-3---3-3-----3-3-----3--|--------------------------------|

G |----------------------------------|---------------------------------|
D |----------------------------------|---------------------------------|
A |----------------------------------|---------------------------------|
E |--3------3-3---3-3-----3-3-----3--|--2---2---2--2---2--2---2--2--2--|

G |-------------------|-------------------|-------------------|--------------------|
D |-------------------|-------------------|-------------------|--------------------|
A |--2-2-2-2-2-2-2-2--|-------------------|--2-2-2-2-2-2-2-2--|--------------------|
E |-------------------|--2-2-2-2-2-2-2-2--|-------------------|--2-2-2-2-2-2-2-2---|

G |-------------------|-------------------|-------------------|
D |-------------------|-------------------|-------------------|
A |--2-2-2-2-2-2-2-2--|--0-0-0-0-0-0-0-0--|-------------------|
E |-------------------|-------------------|--3-3-3-3-3-3-3-3--|

Almost there ...

Sign in to get your own page with links to favourite songs and more. You are just one click away...

Login with Facebook Login with Google