Search tabs and chords

Search for song, artist or band

Log in

One click and you are in

Login with Facebook Login with Google

Why sign up and log in

Guitar Tabs Explorer
Marilyn Manson guitar tabs for 1996 (Ver. 2)

Guitar tabs

Marilyn Manson
1996

Contrary to popular belief, this song is absolutely not in DROP-D.
It is in standard. Granted a lot of the songs on anti-christ are in drop-d,
 but this is one of that isn’t.
I think mister superstar is another one too.
So.. Enjoy the proper tab of 1996
INTRO
|-----------------------|
|:---------------------:|
|-----------------------|
|---222-5/7---888-7-5---|
|:--222-5/7---888-7-5--:|
|---000-3/5-0-666-5-3---|



VERSE
------------------||---------------------||--Rhythm Fill---||
------------------||:-------------------:||:------0-------:||
----LONG REST-----||---------------------||-------0--------||
----FOR VOCALS,---||--222-5/7---888-7-5--||----------------||
----DRUMS & BASS--||:-222-5/7---888-7-5-:||:--------------:||
------------------||--000-3/5-0-666-5-3--||----------------||



CHORUS
|--------------------------------------|
|:------------------------------------:|
|---------------------9-12-7-9---------|
|--2--5--8--7-pm------9-12-7-9-pm------|
|:-2--5--8--7-======--7-10-5-7-======-:|
|--0--3--6--5-00-000--7-10-5-7-00-000--|


Lil lead part
|-----------------------|
|:---------------------:|
|-----------------------|
|--------------555555---|
|:---7777-5-77---------:|
|-----------------------|
|
|
|-----------------------|
|:---------------------:|
|-----------------------|
|---222-5/7---888-7-5---|
|:--222-5/7---888-7-5--:|
|---000-3/5-0-666-5-3---|



VERSE TWO
|---------------------|
|:-------------------:|
|---QUICK-------------|
|----REST---888-7-5---|
|:----------888-7-5--:|
|-----------666-5-3---|



VERSE
||---------------------||--Rhythm Fill---||
||:-------------------:||:------0-------:||
||---------------------||-------0--------||
||--222-5/7---888-7-5--||----------------||
||:-222-5/7---888-7-5-:||:--------------:||
||--000-3/5-0-666-5-3--||----------------||



CHORUS
|--------------------------------------|
|:------------------------------------:|
|---------------------9-12-7-9---------|
|--2--5--8--7-pm------9-12-7-9-pm------|
|:-2--5--8--7-======--7-10-5-7-======-:|
|--0--3--6--5-00-000--7-10-5-7-00-000--|



CHORUS
|--------------------------------------------------------------------|
|--------------------------------------------------------------------|
|------------------9-12-7-9---------------------9-12-7-9-------------|
|--2--5--8--7-5-7--9-12-7-9-pm------2-5-8-7-57--9-12-7-9-87---7-ring-|
|--2--5--8--7-5-7--7-10-5-7-======--2-5-8-7-57--7-10-5-7-87---5------|
|--0--3--6--5-3-5--7-10-5-7-00-000--0-3-6-5-35--7-10-5-7-65---5------|




|-----------------------|
|:---------------------:|
|-----------------------|
|---222-5/7---888-7-5---|
|:--222-5/7---888-7-5--:|
|---000-3/5-0-666-5-3---|



Lil lead part
|------/---------//---------//----//---------------------------------|
|:-----/---------//---------//----//---------------------------------|
|-----*9--------*12--------*14---*15---------------------------------|
|-----*x--------*-x--------*-x---*-x--then just tremolo climb up-----|
|:----*7--------*10--------*12---*13---------------------------------|
|------/---------//---------//----//---------------------------------|
|    */speed pick til change in tone
|
|-----------------------|
|:---------------------:|
|-----------------------|
|---222-5/7---888-7-5---|
|:--222-5/7---888-7-5--:|
|---000-3/5-0-666-5-3---|



CHORUS
|--------------------------------------|-------------------------------|
|:------------------------------------:|-------------------------------|
|---------------------9-12-7-9---------|-------------------------------|
|--2--5--8--7-pm------9-12-7-9-pm------|----- ring --------------------|
|:-2--5--8--7-======--7-10-5-7-======-:|--10---------------------------|

Other versions of 1996

1996Chords
1996Tabs

Almost there ...

Sign in to get your own page with links to favourite songs and more. You are just one click away...

Login with Facebook Login with Google