Log in

One click and you are in

Login with Facebook Login with Google

Why sign up and log in

Guitar Tabs Explorer
Marilyn Manson bass tabs for (s)aint

Bass tabs

  • Tuning: Drop D
  • Difficulty: Intermediate
Track 7 from The Golden Age of Grotesque - (s)AINT


Tuning - 1 Step Down (Drop D)

Intro - No Bass


Verse - No Bass

*Bass comes in @ 40 seconds*

                       Chorus
G |----------------------------|---------------------------|----------------------------|--------------------|
D |----------------------------|---------------------------|----------------------------|--------------------| X2
A |--8--8--8--8--8--10---------|------------------------8--|--8--8--8--8--8--10---------|--------------------|
D |---------------------0--12--|--12--12--12--12--10-------|---------------------0--12--|--0--0--12----0--0--|

        Post Chorus
G |-----------------------------------|
D |-----------------------------------| X4
A |-----------------------------------|
D |--0--0----0--0-----0--0----0----0--|


Verse II - No Bass

                       Chorus II
G |----------------------------|---------------------------|----------------------------|--------------------|
D |----------------------------|---------------------------|----------------------------|--------------------| X2
A |--8--8--8--8--8--10---------|------------------------8--|--8--8--8--8--8--10---------|--------------------|
D |---------------------0--12--|--12--12--12--12--10-------|---------------------0--12--|--0--0--12----0--0--|

        Post Chorus
G |-----------------------------------|
D |-----------------------------------| X4
A |-----------------------------------|
D |--0--0----0--0-----0--0----0----0--|

Rest for a moment

        Bridge
G |-----------------------------------|
D |-----------------------------------| X4
A |-----------------------------------|
D |--0--0----0--0-----0--0----0----0--|

Rest for a Moment

       Final Chorus
G |-----------------------------------|
D |-----------------------------------| X4
A |-----------------------------------|
D |--0--0----0--0-----0--0----0----0--|

         Outro
G |-----------------------------------|
D |-----------------------------------| X4
A |-----------------------------------|
D |--0--0----0--0-----0--0----0----0--|

Almost there ...

Sign in to get your own page with links to favourite songs and more. You are just one click away...

Login with Facebook Login with Google