Search tabs and chords

Search for song, artist or band

Log in

One click and you are in

Login with Facebook Login with Google

Why sign up and log in

Guitar Tabs Explorer
Mansions guitar tabs for When i sleep acoustic

Guitar tabs with lyrics

Transcribed from their acoustic session with Blare.ca that can be viewed, here:
https://www.youtube.com/watch?v=_EIUbsJgCPU

Strumming pattern should be easy to guess from the video. It's all downstrokes. Verse is losely based around
a B chord diagramBB minor chord.

[Intro/Verse]
When i sleep, I dream of leaving you...
E|------------------------------------------------|
B|----3----3----3----3----3----3----3-------------|
G|----0----0----0----0----0----0----0-------------|
D|----4----4----4----4----4----4----4-------------|
A|----3----0----2----3----5----2----3-------------|
E|------------------------------------------------|

Say you didn't wanna push me...

E|----3----3----3----3----------------------------|
B|----3----3----3----3----------------------------|
G|----0----2----0----0----------------------------|
D|----x----2----2----0----------------------------|
A|----3----0----2----x----------------------------|
E|--------------0----3----------------------------|

And I'm tired of the back and forth...

E|----3----3----3----3----3-----------------------|
B|----3----3----3----3----3-----------------------|
G|----0----2----0----0----0-----------------------|
D|----x----2----0----0----2-----------------------|
A|----3----0----x----x----2-----------------------|
E|--------------3----2----0-----------------------|

But I won't think twice...

E|----3----3--------------------------------------|
B|----3----3--------------------------------------|
G|----0----2--------------------------------------|
D|----x----2--------------------------------------|
A|----3----0--------------------------------------|
E|------------------------------------------------|

Seperate paths, I breathe so easily...

E|------------------------------------------------|
B|----3----3----3----3----3----3----3-------------|
G|----0----0----0----0----0----0----0-------------|
D|----4----4----4----4----4----4----4-------------|
A|----3----0----2----3----5----2----3-------------|
E|------------------------------------------------|

Say you didn't wanna push me...

E|----3----3----3----3----------------------------|
B|----3----3----3----3----------------------------|
G|----0----2----0----0----------------------------|
D|----x----2----2----0----------------------------|
A|----3----0----2----x----------------------------|
E|--------------0----3----------------------------|

And I'm tired of the back and forth...

E|----3----3----3----3----3-----------------------|
B|----3----3----3----3----3-----------------------|
G|----0----2----0----0----0-----------------------|
D|----x----2----0----0----2-----------------------|
A|----3----0----x----x----2-----------------------|
E|--------------3----2----0-----------------------|

But I won't think twice...

E|----3----3--------------------------------------|
B|----3----3--------------------------------------|
G|----0----2--------------------------------------|
D|----x----2--------------------------------------|
A|----3----0--------------------------------------|
E|------------------------------------------------|

E|------------------------------------------------|
B|----3----3--------------------------------------|
G|----4----2--------------------------------------|
D|----x----x--------------------------------------|
A|----3----3--------------------------------------|
E|------------------------------------------------|

Is it so wrong to wanna keep this to myself?...

E|------------------------------------------------|
B|----3----3--------------------------------------|
G|----4----2--------------------------------------|
D|----x----x--------------------------------------|
A|----3----3--------------------------------------|
E|------------------------------------------------|

Say you didn't wanna push me...

E|----3----3----3----3----------------------------|
B|----3----3----3----3----------------------------|
G|----0----2----0----0----------------------------|
D|----x----2----2----0----------------------------|
A|----3----0----2----x----------------------------|
E|--------------0----3----------------------------|

And I'm tired of the back and forth...

E|----3----3----3----3----3-----------------------|
B|----3----3----3----3----3-----------------------|
G|----0----2----0----0----0-----------------------|
D|----x----2----0----0----2-----------------------|
A|----3----0----x----x----2-----------------------|
E|--------------3----2----0-----------------------|

But I won't think twice...

E|----3----3--------------------------------------|
B|----3----3--------------------------------------|
G|----0----2--------------------------------------|
D|----x----2--------------------------------------|
A|----3----0--------------------------------------|
E|------------------------------------------------|

[Outro]
E|----3-------------------------------------------|
B|----3-------------------------------------------|
G|----0-------------------------------------------|
D|----2-------------------------------------------|
A|----2-------------------------------------------|
E|----0-------------------------------------------|


************************************

| x  Dead note

Almost there ...

Sign in to get your own page with links to favourite songs and more. You are just one click away...

Login with Facebook Login with Google