Search tabs and chords

Search for song, artist or band

Log in

One click and you are in

Login with Facebook Login with Google

Why sign up and log in

Guitar Tabs Explorer
Mansions guitar tabs for Insulated

Guitar tabs

-------------------------------------------------------------------------------
Insulated - Mansions
-------------------------------------------------------------------------------
Tabbed by:Pat
E chord diagramEE-mail:phynes19@gmail.com

Tuning:Drop C# chord diagramC#C#

You can probably play it in just half step down but I just find it easier and better
sounding like this.
Also this is my first tab so I hope it's not too confusing.
Here's a link of me playing it, i don't know if you'll really be able to see the finger
placement but it might
help.

http://youtu.be/BPrlWzpr3QA

Verse - "I've never felt so insulated"

D#| chord diagramD#|D#|---------------------------------------------------------------------------|
A#| chord diagramA#|A#|---------------------------------------------------------------------------|
F#| chord diagramF#|F#|---------------------------------------------------------------------------|
C#| chord diagramC#|C#|---9---------5-------------------------------------------------------------|
G#| chord diagramG#|G#|---9---------5-------------------------------------------------------------|
C#| chord diagramC#|C#|---9-x16-----5-x16---------------------------------------------------------| x3

Verse Part 2 - "I can just close my eyes"
|------------------------------------------------------------------------------------|
|------------------------------------------------------------------------------------|
|------------------------------------------------------------------------------------|
|----2-----5-------2-----7------5----------------------9-----7------5----------------|
|----2-----5-------2-----7------5----------------------9-----7------5----------------|
|----2-x16-5-x16---2-x8--7-x8---5--x16----then---------9-x1--7-x1---5--x1------------|

Chorus - "cause you're so mean
|-------------------------------------|
|-------------------------------------|
|-------------------------------------|
|----2-----------9------7------5------|
|----2-----------9------7------5------|
|----2-x16-then--9-x8---7-x8---5-x16--|


These are just repeated throughout the song.

************************************

| /   slide up
| \   slide down
| h   hammer-on
| p   pull-off
| ~   vibrato
| +   harmonic
| x   Mute note
| b   Bend
| pb  Pre-bend
| br  Bend release
| pbr Pre-bend release
| brb Bend release bend

************************************

Almost there ...

Sign in to get your own page with links to favourite songs and more. You are just one click away...

Login with Facebook Login with Google