Search tabs and chords

Search for song, artist or band

Log in

One click and you are in

Login with Facebook Login with Google

Why sign up and log in

Guitar Tabs Explorer
Mansions guitar tabs for If youre leaving

Guitar tabs with lyrics

-------------------------------------------------------------------------------
                             IF YOU'RE LEAVING - Mansions
-------------------------------------------------------------------------------
Album: Doom Loop (2013)
Tabbed by: Joe Fowler
E chord diagramEE-mail: marketthis53@gmail.com

This is my favorite track on the album, and my second Mansions tab. I hope you enjoy it!

Tuning: STANDARD

Intro: Play riff A chord diagramAA twice then riff B chord diagramBB then riff A chord diagramAA again. (AABA)

e|---------------------------------------------------------------------------|
B|---------------------------------------------------------------------------|
G|-------------------------------------------------------9-------------------|
D|--------8-------9--8--9--8------------------8------9-8---9--8--------------|
A|--9--9-9-----9-9-------------(A chord diagramAA)----9--9-9----9-9----------------(B chord diagramBB)-------|
E|---------------------------------------------------------------------------|

First Verse: the first half is drum + bass, second half just make some noise with F# chord diagramF#F#.
something like this:

e|----------------------------------------------------------------|
B|----------------------------------------------------------------|
G|--11------------------11----------------------------------------|
D|----------------------11----------------------------------------|
A|--9-------------------9-----------------------------------------|
E|----------------------------------------------------------------|
        "...underwater."

"Hey! Hey! Hey!" I think it's bass only on the album, but I like to play this with the
tone knob turned down.

e|---------------------------------------------------------------------------|
B|---------------------------------------------------------------------------|
G|---------------------------------------------------------------------------|
D|--4~--4~-4---2-2-2--4~~----------------------------------------------------|
A|--4~--4~-2---2-2-2--4~~----------------------------------------------------|
E|--2~--2~-2---0-0-0--2~~-(x3)-----------------------------------------------|

Second Verse: "I've been waiting..."

e|----------------------------------------------------------------------------------|
B|----------------------------------------------------------------------------------|
G|-----------------------------------------------------------------4~~~-------------|
D|--4~~~---2-2-2-4~~~-------4-4-4---7~~~--------2~~~---------------4~~~-------------|
A|--4~~~---2-2-2-4~~~-------4-4-4---7~~~--------2~~~---------------2~~~-------------|
E|--2~~~---0-0-0-2~~~-(x3)--2-2-2---5~~~--------0~~~--------------------------------|
                           ...untied."      "...I don't know.." "..I just feel..."

First Chorus

e|--------------------------------------------------------------------------|
B|--------------------------------------------------------------------------|
G|-------6---------4--------------------------------------------------------|
D|--4----6----2----4--------------------------------------------------------|
A|--4----4----2----2--------------------------------------------------------|
E|--2---------0----------(x2)-----------------------------------------------|

Third Verse: Most of this is palm muted, I like to play around with staccatos,
             especially with chord changes. Have fun with it!

e|---------------------------------------------------------------------------|
B|---------------------------------------------------------------------------|
G|------------4*-------------------------------------------------------------|
D|--4*---2*---4*---4*--------------------------------------------------------|
A|--4*---2*---2*---4*--------------------------------------------------------|
E|--2*---0*--------2*----(x2)------------------------------------------------|

Second Chorus: Guitar 1 plays chorus chords while Guitar 2 plays a lead like this:

e|--------------------------------------------6-------|---------------------------------|
B|---7---7--9----7--------------7--9----7--9-----9--7-|---7--9---7--9---7---------------|
G|-----6-----------6--8---(x3)--------6---------------|-6------6------6----(x3)---------|
D|----------------------------------------------------|---------------------------------|
A|----------------------------------------------------|---------------------------------|
E|----------------------------------------------------|---------------------------------|
(I'll admit that I'm a little lost after this part, maybe I'll come back to it someday.)


Chorus 2: same as Chorus 1, end with the following:


e|---------------------------------------------------------------------------|
B|---------------------------------------------------------------------------|
G|------4-4-4-4-4-4-4-4-4-4-4-4----------------------------------------------|
D|------4-4-4-4-4-4-4-4-4-4-4-4-2-2-2-4--------------------------------------|
A|------2-2-2-2-2-2-2-2-2-2-2-2-2-2-2-4--------------------------------------|
E|------------------------------0-0-0-2--------------------------------------|

Almost there ...

Sign in to get your own page with links to favourite songs and more. You are just one click away...

Login with Facebook Login with Google