Log in

One click and you are in

Login with Facebook Login with Google

Why sign up and log in

Guitar Tabs Explorer
Manowar bass tabs for Hail and kill

Bass tabs with lyrics

. . _    __    _ / \
   |\/| |_| |\| | | | | |_| | /
   | | | | | | | | |/\| | | | |
   |       \/       |

Bass Tab transcription by Birey(Bnbbros@bistek.net.tr)

Here is one of my first trials of bass tab transcription:Hail and Kill from
the Kings of Metal album of Manowar, although it's not a very complex song
I can't say that the transcription is perfect, I've just written the way
that
I feel. Enjoy it! Hail!

Special thanks to G.Crisan(crisan@shadow.net) for his corrections.
I mistabbed the intro before and I was not sure for some parts.Now it is
surely better.

All text refers to the tab ABOVE it. Any comments, suggestions, or errors
refering to the tab below that should be brought to my attention, e-mail
me.

Tab explanations
-----------------------------------------------
h  hammer-on     |  R  rest
p  pull off      |  :  repeat
~  vibrato      |  M  mute strings
/\  slide up-down   |  .  staccatto
-----------------------------------------------

HAIL AND KILL (Joey DeMaio,Ross the Boss)
 (From the album "Kings of Metal")

G-----------------5------5--5------5--------------------.---.---------------
D---9------9------5------5--5------5------9------9------9---7---5-----------
A---7------7------3------3--3--M---3------7------7------7---5---3-------7---
E---0------0------------------------------0------0------0---5---3-------0---
  Intro                              (let
ring)

-------------------------------------|--------------------------------------
---------------R---------------------|--------------------------------------
-------------------------------------|-----------0---5---7--/10p9--5--------
-------------------------------------|---12\--0-----------------------------
 Brothers..        ..to atone

--------------------------------------------------------------9--12--11--9--
-------------------------------------------------------9--------------------
--5---7---5-----------------5---3---/15--/17-15----7------------------------
---------------3---2---0---------------------------0------0-----------------

----------------9-----/12--11--9--7\---9-----|---------|--------------------
--12-------12-----12-------------------9-----|----R----|--------------------
---------------------------------------7-----|---------|--7-7-7-7--7-7-7-7--
---------------------------------------0-----|---------|--------------------
            <-play very softly->

-------------------------------------------------------|--------------------
------------------------------------------------5------|.-------------------
--7-7-7-7--7-7-7-7--7-7-7-7--7-7-7-7--7-7-7-7-------5--|.-7-7-7-7--7-7-7-7--
-------------------------------------------------------|--------------------


----------------------------------------------------------------------------
----------------------------------------------------------------------------
--7-7-7-7--7-7-7-7--5-5-5-5--5-5-5-5--5-5-5-5--5-5-5-5--10-10-10-10--9-9-9-9
----------------------------------------------------------------------------


-----------------------------------------------5-5-5-5---|
--------------------------------------------------------.|
--7-7-7-7--5-5-5-5--3-3-3-3--3-3-3-3--3-3-3-3-----------.|
---------------------------------------------------------|


----------------------------------------------------------------------------
----------------------------------------------------------------------------
--7-7-7-7--7-7-7-7--7-7-7-7--7-7-7-7--5-5-5-5--5-5-5-5--5-5-5-5--5-5-5-5----
----------------------------------------------------------------------------


----------------------------------------------------------------------------
----------------------------------------------------------------------------
--10-10-10-10--9-9-9-9--7-7-7-7--5-5-5-5--3-3-3-3--3-3-3-3--3-3-3-3---------
----------------------------------------------------------------------------
 divine    right   hail  and    kill

|---------------------------------------------------------------------------
|.--------------------------------------------------------------------------
|.-3---5---7-7-7-7--7-7-7-7--5-5-5-5---3--5--3-----7-7-7-7--7-7-7-7--7-7-7-7
|---------------------------------------------------------------------------
                            hail  hail  hail

----------------------------------------------------------------------------
----------------------------------------------------------------------------
--7-7-7-7------7-7-7-7--7-7-7-7--5-5-5-5---3--5--3-----7-7-7-7---7-7-7-7----
----------------------------------------------------------------------------
 and kill                        hail  and

-----------|----------|-----------------------------------------------------
----------.|----------|.----------------------------------------------------
-7-7-7-7--.|--7-7-7-7-|.-7-7-7-7--7-7-7-7--7-7-7-7--7-7-7-7--5-5-5-5--5-5-5-
-----------|----------|-----------------------------------------------------

 kill

----------------------------------------------------------------------------
--------------------5-5-5-5--4-4-4-4----------------------------------------
--5-5-5-5--5-5-5-5--------------------7-7-7-7--5-5-5-5--3-3-3-3--3-3-3-3----
----------------------------------------------------------------------------

--------------------|-------------------------------------------------------
-------------------.|.------------------------------------------------------
-3-3-3-3--3-3-3-3--.|.-(02)3--5---7-7-7-7--7-7-7-7--5-5-5-5--3-3-3-3--7-7-7-
--------------------|-------------------------------------------------------
         3x Play what's in parenthesis
           only the first time

--------------------|-------------------------------------------------------
-------------------.|.------------------------------------------------------
-7-7-7-7--7-7-7-7--.|.-7-7-7-7--7-7-7-7--7-7-7-7--7-7-7-7--5-5-5-5--5-5-5-5-
--------------------|-------------------------------------------------------
           Guitar Solo

----------------------------------------------------------------------------
--------------------5-5-5-5--4-4-4-4----------------------------------------
--5-5-5-5--5-5-5-5--------------------7-7-7-7--5-5-5-5--3-3-3-3--3-3-3-3----
----------------------------------------------------------------------------

--------------------|-------------------------------------------------------
-------------------.|-------------------------------------------------------
-3-3-3-3-(3-3-3-3)-.|----7--------------------------------------------------
--------------------|----0--------------------------------------------------
        3x

-----------------------------------------------------|----9-----------------
------------R-------------------------R--------------|----9-----------------
-----------------------------------------------------|----7-----------------
-----------------------------------------------------|----0-----------------
 hail hail hail and kill  hail hail hail and kill  hail hail...

---------------|---5-----------------------|--------------------------------
---------------|---5-----------------------|--------------------------------
---------------|---3-----------------------|--7-7-7-7--7-7-7-7--7-7-7-7-----
---------------|---------------------------|--------------------------------
 hail hail...  hail hail... hail hail..  hail hail...

----------------------------------------------------------------------------
----------------------------------------------------------------------------
--7-7-7-7--7-7-7-7--7-7-7-7--7-7-7-7--7-7-7-7--3-3-3-3--3-3-3-3--3-3-3-3----
----------------------------------------------------------------------------
      hail hail..             hail   hail   hail and

-------------5--------|-----------------------------------------------------
-------------5--------|.----------------------------------------------------
--3-3-3-3----3--------|.7-7-7-7--7-7-7-7--7-7-7-7--7-7-7-7--5-5-5-5--5-5-5-5
----------------------|-----------------------------------------------------
 kill    yeah!

----------------------------------------------------------------------------
--------------------5-5-5-5--4-4-4-4----------------------------------------
--5-5-5-5--5-5-5-5--------------------7-7-7-7--5-5-5-5--3-3-3-3--3-3-3-3----
----------------------------------------------------------------------------

--------------------|-------------------------------------------------------
-------------------.|.------------------------------------------------------
-3-3-3-3--3-3-3-3--.|.---3----5---7-7-7-7--7-7-7-7--5-5-5-5--3-3-3-3--7-7-7-
--------------------|-------------------------------------------------------
         3x

--------------------|
-------------------.|
-7-7-7-7--7-7-7-7--.|
--------------------|
      fade out

Almost there ...

Sign in to get your own page with links to favourite songs and more. You are just one click away...

Login with Facebook Login with Google