GuitarTabsExplorer icon
GuitarTabsExplorer icon

Log in

Songbook

  • Log in to add and see bookmarks

Last visited songs

    No songs visited yet...

Call To Arms by Manowar

Tabs

|-------------------------------------------------------------------||
|-------------------------------------------------------------------||
|---------------------------------------------10--------------------||
|--8--------8--------8-10-12--8--------8--12--8---------------------||
|--6--6-6-6-6--6-6-6-6-8--10--6--6-6-6-6--10------------------------||
|-------------------------------------------------------------------||

|--------------------------------------------------------------------||
|--------------------------------------------------------------------||
|----------------------------------------10-12-14--------------------||
|--8--------8--------8-10-12-14-10--------8-10-12--------------------||
|--6--6-6-6-6--6-6-6-6-8--10-12-8--8-8-8-----------------------------||
|--------------------------------------------------------------------||

|--------------------------------------------------||
|--------------------------------------------------||
|--------------------------------------------------||
|-8--------10--------------------------------------||
|-6----6-6--8--------------------------------------||
|--------------------------------------------------||
rapeat 2x
Chord diagramE MajorE|--------------------------------------------------||
Chord diagramBB|--------------------------------------------------||
Chord diagramG+G|--------------------------------------------------||
Chord diagramD MajorD|--------------------------------------------------||
Chord diagramA augmentedA|--5-5---------5-5---------5-5---------3-3---------||
Chord diagramE MajorE|--3-3-3-3-3-3-3-3-3-3-3-3-3-3-3-3-3-3-1-1---------||
  When they see us they see us....
Chord diagramE MajorE|--------------------------------------------------||
Chord diagramBB|--------------------------------------------------||
Chord diagramG+G|--------------------------------------------------||
Chord diagramD MajorD|--------------------------------------------------||
Chord diagramA augmentedA|--5-5-5-5-5-5-5-5-5-5-5-5-5-5-5-5-5---------------||
Chord diagramE MajorE|--3-3-3-3-3-3-3-3-3-3-3-3-3-3-3-3-3---------------||
 So long did we wait, now, we are home.
Chord diagramE MajorE|---------------------------------------------||
Chord diagramBB|---------------------------------------------||
G/---------------------------------------------||
Chord diagramD MajorD|---------------------------------------------||
Chord diagramA augmentedA|--3-3-3-3-3-3-3-3-3-5-5-5-5-5-5-5-5----------||
Chord diagramE MajorE|--1-1-1-1-1-1-1-1-1-3-3-3-3-3-3-3-3----------||


Chord diagramE MajorE|--------------------------------------------------||
Chord diagramBB|--------------------------------------------------||
Chord diagramG+G|--------------------------------------------------||
Chord diagramD MajorD|--------------------------------------------------||
Chord diagramA augmentedA|--5-5---------5-5---------5-5---------3-3---------||
Chord diagramE MajorE|--3-3-3-3-3-3-3-3-3-3-3-3-3-3-3-3-3-3-1-1---------||

 now we will fight for the kingdom, fighting with steel
Chord diagramE MajorE|-------------------------------------------------------------------||
Chord diagramBB|-------------------------------------------------------------------||
Chord diagramG+G|-------------------------------------------------------------------||
Chord diagramD MajorD|-------------------------------------------------------------------||
Chord diagramA augmentedA|---3--3---5-5---------5-5---------5-5---------5-3-3----------------||
Chord diagramE MajorE|---1--1---3-3-3-3-3-3-3-3-3-3-3-3-3-3-3-3-3-3-3-1-1----------------||
  kill all of them, their blood is our seal
Chord diagramE MajorE|-------------------------------------------------------------------||
Chord diagramBB|-------------------------------------------------------------------||
Chord diagramG+G|-------------------------------------------------------------------||
Chord diagramD MajorD|--------------------------------------3----------------------------||
Chord diagramA augmentedA|--5-5---------5-5---------5-5---------1-3--------------------------||
Chord diagramE MajorE|--3-3-3-3-3-3-3-3-3-3-3-3-3-3-3-3-3-3---1--------------------------||
 fight till the last, till the enemy is dead
Chord diagramE MajorE|-------------------------------------------------------------------||
Chord diagramBB|-------------------------------------------------------------------||
Chord diagramG+G|-------------------------------------------------------------------||
Chord diagramD MajorD|-------------------------------------------------------------------||
Chord diagramA augmentedA|-5-5---------5-5---------5-5---------5-3---------------------------||
Chord diagramE MajorE|-3-3-3-3-3-3-3-3-3-3-3-3-3-3-3-3-3-3-3-1---------------------------||
 ride through their blood that we gladly have shred
Chord diagramE MajorE|-------------------------------------------------------------------||
Chord diagramBB|-------------------------------------------------------------------||
Chord diagramG+G|-------------------------------------------------------------------||
Chord diagramD MajorD|--------------------------------------3----------------------------||
Chord diagramA augmentedA|--3-3---------3-3---------3-3---------1-3--------------------------||
Chord diagramE MajorE|--1-1-1-1-1-1-1-1-1-1-1-1-1-1-1-1-1-1---1----------
I now issue the call ..................................... To be free once again
Chord diagramE MajorE
B-------------------------------------------------------------------------------|
G-------------------------------------------------------------------------------|
D-------------------------------------------------------------------------------|
A--3--3---5-5-5-5-5-5-5-5-5-5-5-5-5-5----333-3-3-3-3-3-3-3-3-3-3-3-3-3-3-3-3----|
E--1--1---3-3-3-3-3-3-3-3-3-3-3-3-3-3----111-1-1-1-1-1-1-1-1-1-1-1-1-1-1-1-1----|

tonight we will win
E-------------------------------------------------------------------------------|
B-------------------------------------------------------------------------------|
G-------------------------------------------------------------------------------|
D-------------------------------------------------------------------------------|
A--55-----------55-----------55----------3--3-----------------------------------|
E--33-3-3-3-3---333--3-3-3---333-3-3-3---1--1-----------------------------------|

Repeat this part (I now issue - tonight we will win)

Chorus:

Fight for the kingdom bound for glory Armed with a heart of steel
E--------------------------------------------------------------------------------|
B--------------------------------------------------------------------------------|
G--------------------------------------------------------------------------------|
D--8------------8-----------8--10---12------8-----------8--10--12-------12--10---|
A--6----6-6-6---6----6-6-6--6---8---10------6----6-6-6--6---8---10-------10---8--|
E--------------------------------------------------------------------------------|

I swear by the brothers who stand before me
E---------------------------------------------------------------------------------|
B---------------------------------------------------------------------------------|
G---------------------------------------------------------------------------------|
D--8------------8-----------8--10---12--------------------------------------------|
A--6----6-6-6---6----6-6-6--6---8---10--------------------------------------------|
E---------------------------------------------------------------------------------|

To no man shall I kneel
E-----------------------------------------------------------------------------------|
B-----------------------------------------------------------------------------------|
G--10-----------10--12---14---------------------------------------------------------|
D---8----8-8-8--8---10---12---------------------------------------------------------|
A-----------------------------------------------------------------------------------|
E-----------------------------------------------------------------------------------|

Then blood is upon my steel
E-----------------------------------------------------------------------------------|
B-----------------------------------------------------------------------------------|
G-----------------------------------------------------------------------------------|
D--8-----------8--10---12-------------12--10----------------------------------------|
A--6----6-6-6--6---8---10-------------10---8----------------------------------------|
E-----------------------------------------------------------------------------------|

solo:Solo is not really that good, it's much easier to create your own.

Other versions of Call To Arms

Alternative guitar chords and tabs for Call to arms by Manowar

VersionType
Call to armsChords

[ Privacy | About us ]

Welcome to the guitar community

Why join and log in?
- Get songbook with favourite songs
- Get custom made front page
- Submit chords and tabs
- Submit guitar-cover videos
- Get a lot of thumbs up for your work

Songbook

Last visited songs

Site
Home
Search
Community
Submit chords

Video

No video for this page. Check out how you can submit guitar-cover videos here

Search tabs and chords

Browse by artist

A B C D E F G H I J K L M N O P Q R S T U V W X Y Z #


Menu

Search

Video

Bookmark

Login