Log in

One click and you are in

Login with Facebook Login with Google

Why sign up and log in

Guitar Tabs Explorer
Mannequin Pussy bass tabs for Romantic

Bass tabs

  • Difficulty: Beginner
Tuning: Standard (E A D G)

♫ Intro:
  1 + 2 + 3 + 4 + |1 + 2 + 3 +
G|---------------------------------------------------------------------------|x2
D|---------------------------------------------------------------------------|
A|---------------------------------------------------------------------------|
E|-10-10-10-10-10-10-10-10-10-10-10-10-10-11---------------------------------|
Verse 1:

G|---------------------------------------------------------------------------|
D|---------------------------------------------------------------------------|
A|----------------------10-------10------------------------------------------|
E|10-------10----------------------------------------------------------------|

G|-------------------------------------------------------------------------------|
D|-------------------------------------------------------------------------------|
A|----------------------10-------10-10-10-10-10-10-10-10-10-12-12-12-12-10-10\---|
E|10-------10--------------------------------------------------------------------|


♫ Chorus:

G|---------------------------------------------------------------------------|x2
D|---------------------------------------------------------------------------|
A|---------------------------------------------------------------------------|
E|-10-10-10-10-10-10-10-10-10-10-10-10-10-11---------------------------------|

G|---------------------------------------------------------------------------|
D|---------------------------------------------------------------------------|
A|----------------------------------------/14-12-9-10--10-10---10--10-10-----|
E|10--10-10---10--10-10---10--10-10---10-------------------------------------|

G|---------------------------------------------------------------------------|
D|---------------------------------------------------------------------------|
A|10--10-10---10--10-10------------------------------------------------------|
E|---------------------------------------------------------------------------|
 1      2      3      4     |1      2
G|---------------------------------------------------------------------------|
D|---------------------------------------------------------------------------|
A|----------------------------------------/14-12--10--10-10---10--10-10------|
E|10--10-10---10--10-10-5-10--10-10---10-------------------------------------|

G|---------------------------------------------------------------------------|
D|---------------------------------------------------------------------------|
A|10-10-10-10-10-10-10-10-10-12-12-12-12-10-10\------------------------------|
E|---------------------------------------------------------------------------|

G|---------------------------------------------------------------------------|x2
D|---------------------------------------------------------------------------|
A|---------------------------------------------------------------------------|
E|-10-10-10-10-10-10-10-10-10-10-10-10-10-11---------------------------------|

G|---------------------------------------------------------------------------|
D|---------------------------------------------------------------------------|
A|14-14-14-12-12-12------9-9-9-----------------------------------------------|
E|------------------12-9-------12-12-12-14-12--------------------------------|

G|---------------------------------------------------------------------------|x4
D|---------------------------------------------------------------------------|
A|---------------------------------------------------------------------------|
E|-10-10-10-10-10-10-10-10-10-10-10-10-10-11---------------------------------|


************************************

| \ Slide down
| / Slide up


************************************

Almost there ...

Sign in to get your own page with links to favourite songs and more. You are just one click away...

Login with Facebook Login with Google