Log in

One click and you are in

Login with Facebook Login with Google

Why sign up and log in

Guitar Tabs Explorer
Manfred Mann tabs for Do wah diddy diddy

Guitar tabs with lyrics

DO WAH DIDDY DIDDY

As recorded by Manfred Mann
(From the 1964 Album THE MANFRED MANN ALBUM)

Words and Music by Jeff Barry & Ellie Greenwich

Transcribed by Slowhand
Gtr I (E A D G B E) - 'Mike Vickers - Electric Guitar'
Gtr II (E A D G B E) - 'Manfred Mann - Organ'
Gtr III (E A D G B E) - 'Manfred Mann - Organ'


 Intro
  Q=128
  A chord diagramE MajorE                         A chord diagramA augmentedA       A chord diagramE MajorE
 4/4
  Gtr I (El. Gtr.)
   Q   A chord diagramE MajorE  A chord diagramE MajorE  +A chord diagramE MajorE   A chord diagramE MajorE  A chord diagramE MajorE  A chord diagramE MajorE    Q   Q   e A chord diagramE MajorE Q
|--0---0--0--(0)--0--0--0-|--0---0---0------||
|--0---0--0--(0)--0--0--0-|--2---2---0------||
|--1---1--1--(1)--1--1--1-|--2---2---1------||
|--2---2--2--(2)--2--2--2-|--2---2---2------||
|--2---2--2--(2)--2--2--2-|--0---0---2------||
|--0---0--0--(0)--0--0--0-|----------0------||
|
| Gtr II (Organ arr. for Gtr.)
|  Q   A chord diagramE MajorE  A chord diagramE MajorE  +A chord diagramE MajorE   A chord diagramE MajorE  A chord diagramE MajorE  A chord diagramE MajorE    Q   Q   e A chord diagramE MajorE Q
|-------------------------|-----------------||
|-12--12-12-(12)-12-12-12-|-14--14--12------||
|-13--13-13-(13)-13-13-13-|-14--14--13------||
|-14--14-14-(14)-14-14-14-|-14--14--14------||
|-------------------------|-----------------||
|-------------------------|-----------------||

 1st & 4th Verses
  $
  N.C.                  A chord diagramE MajorE
  W          W           Q   A chord diagramE MajorE  A chord diagramE MajorE  +A chord diagramE MajorE   A chord diagramE MajorE  A chord diagramE MajorE  A chord diagramE MajorE
|----------|----------|--0---0--0--(0)--0--0--0-|
|----------|----------|--0---0--0--(0)--0--0--0-|
|----------|----------|--1---1--1--(1)--1--1--1-|
|----------|----------|--2---2--2--(2)--2--2--2-|
|----------|----------|--2---2--2--(2)--2--2--2-|
|----------|----------|--0---0--0--(0)--0--0--0-|
|
| W          W           Q   A chord diagramE MajorE  A chord diagramE MajorE  +A chord diagramE MajorE   A chord diagramE MajorE  A chord diagramE MajorE  A chord diagramE MajorE
|----------|----------|-------------------------|
|----------|----------|-12--12-12-(12)-12-12-12-|
|----------|----------|-13--13-13-(13)-13-13-13-|
|----------|----------|-14--14-14-(14)-14-14-14-|
|----------|----------|-------------------------|
|----------|----------|-------------------------|


  A chord diagramA augmentedA       A chord diagramE MajorE                                     A chord diagramA augmentedA       A chord diagramE MajorE
   Q   Q   A chord diagramE MajorE  A chord diagramE MajorE A chord diagramE MajorE A chord diagramE MajorE    Q   A chord diagramE MajorE  A chord diagramE MajorE  +A chord diagramE MajorE   A chord diagramE MajorE  A chord diagramE MajorE  A chord diagramE MajorE    Q   Q   A chord diagramE MajorE  A chord diagramE MajorE A chord diagramE MajorE A chord diagramE MajorE
|--0---0---0--0-0-x-|--0---0--0--(0)--0--0--0-|--0---0---0--0-0-0-|
|--2---2---0--0-0-x-|--0---0--0--(0)--0--0--0-|--2---2---0--0-0-0-|
|--2---2---1--1-1-x-|--1---1--1--(1)--1--1--1-|--2---2---1--1-1-1-|
|--2---2---2--2-2-x-|--2---2--2--(2)--2--2--2-|--2---2---2--2-2-2-|
|--0---0---2--2-2-x-|--2---2--2--(2)--2--2--2-|--0---0---2--2-2-2-|
|----------0--0-0-x-|--0---0--0--(0)--0--0--0-|----------0--0-0-0-|
|
|  Q   Q   q.     A chord diagramE MajorE    Q   A chord diagramE MajorE  A chord diagramE MajorE  +A chord diagramE MajorE   A chord diagramE MajorE  A chord diagramE MajorE  A chord diagramE MajorE    Q   Q   q.     A chord diagramE MajorE
|-------------------|-------------------------|-------------------|
|-14--14--12--------|-12--12-12-(12)-12-12-12-|-14--14--12--------|
|-14--14--13--------|-13--13-13-(13)-13-13-13-|-14--14--13--------|
|-14--14--14--------|-14--14-14-(14)-14-14-14-|-14--14--14--------|
|-------------------|-------------------------|-------------------|
|-------------------|-------------------------|-------------------|


                                              Pre-Chorus
                            A chord diagramA augmentedA       A chord diagramE MajorE          N.C.
   Q   A chord diagramE MajorE  A chord diagramE MajorE  +A chord diagramE MajorE   A chord diagramE MajorE  A chord diagramE MajorE  A chord diagramE MajorE    Q   Q   e A chord diagramE MajorE Q     W
|--0---0--0--(0)--0--0--0-|--0---0---0------||------|
|--0---0--0--(0)--0--0--0-|--2---2---0------||------|
|--1---1--1--(1)--1--1--1-|--2---2---1------||------|
|--2---2--2--(2)--2--2--2-|--2---2---2------||------|
|--2---2--2--(2)--2--2--2-|--0---0---2------||------|
|--0---0--0--(0)--0--0--0-|----------0------||------|
|
|  Q   A chord diagramE MajorE  A chord diagramE MajorE  +A chord diagramE MajorE   A chord diagramE MajorE  A chord diagramE MajorE  A chord diagramE MajorE    Q   Q   e A chord diagramE MajorE Q     W
|-------------------------|-----------------||------|
|-12--12-12-(12)-12-12-12-|-14--14--12------||------|
|-13--13-13-(13)-13-13-13-|-14--14--13------||------|
|-14--14-14-(14)-14-14-14-|-14--14--14------||------|
|-------------------------|-----------------||------|
|-------------------------|-----------------||------|


                                 To Coda
  Gtr III (Organ arr. for Gtr.)
  W          Q  Q  Q  Q    A chord diagramE MajorE A chord diagramE MajorE A chord diagramE MajorE A chord diagramE MajorE Q  Q
|----------|-------------|---------------||
|----------|-------------|---------------||
|----------|-------------|---------------||
|----------|----2-----2--|-----2-2-------||
|----------|-------2-----|-2-2-----2-----||
|----------|-------------|---------------||


   2nd & 3rd Verses
    A chord diagramE MajorE                         A chord diagramA augmentedA       A chord diagramE MajorE
    Gtr I
     Q   A chord diagramE MajorE  A chord diagramE MajorE  +A chord diagramE MajorE   A chord diagramE MajorE  A chord diagramE MajorE  A chord diagramE MajorE    Q   Q   A chord diagramE MajorE  A chord diagramE MajorE A chord diagramE MajorE A chord diagramE MajorE    Q   A chord diagramE MajorE  A chord diagramE MajorE  +A chord diagramE MajorE   A chord diagramE MajorE  A chord diagramE MajorE  A chord diagramE MajorE
||---0---0--0--(0)--0--0--0-|--0---0---0--0-0-x-|--0---0--0--(0)--0--0--0-|
||o--0---0--0--(0)--0--0--0-|--2---2---0--0-0-x-|--0---0--0--(0)--0--0--0-|
||---1---1--1--(1)--1--1--1-|--2---2---1--1-1-x-|--1---1--1--(1)--1--1--1-|
||---2---2--2--(2)--2--2--2-|--2---2---2--2-2-x-|--2---2--2--(2)--2--2--2-|
||o--2---2--2--(2)--2--2--2-|--0---0---2--2-2-x-|--2---2--2--(2)--2--2--2-|
||---0---0--0--(0)--0--0--0-|----------0--0-0-x-|--0---0--0--(0)--0--0--0-|
|
|   Gtr II
|    Q   A chord diagramE MajorE  A chord diagramE MajorE  +A chord diagramE MajorE   A chord diagramE MajorE  A chord diagramE MajorE  A chord diagramE MajorE    Q   Q   q.     A chord diagramE MajorE    Q   A chord diagramE MajorE  A chord diagramE MajorE  +A chord diagramE MajorE   A chord diagramE MajorE  A chord diagramE MajorE  A chord diagramE MajorE
||--------------------------|-------------------|-------------------------|
||o-12--12-12-(12)-12-12-12-|-14--14--12--------|-12--12-12-(12)-12-12-12-|
||--13--13-13-(13)-13-13-13-|-14--14--13--------|-13--13-13-(13)-13-13-13-|
||--14--14-14-(14)-14-14-14-|-14--14--14--------|-14--14-14-(14)-14-14-14-|
||o-------------------------|-------------------|-------------------------|
||--------------------------|-------------------|-------------------------|


  A chord diagramA augmentedA       A chord diagramE MajorE                                     A chord diagramA augmentedA       A chord diagramE MajorE
   Q   Q   A chord diagramE MajorE  A chord diagramE MajorE A chord diagramE MajorE A chord diagramE MajorE    Q   A chord diagramE MajorE  A chord diagramE MajorE  +A chord diagramE MajorE   A chord diagramE MajorE  A chord diagramE MajorE  A chord diagramE MajorE    Q   Q   A chord diagramE MajorE  A chord diagramE MajorE A chord diagramE MajorE A chord diagramE MajorE
|--0---0---0--0-0-x-|--0---0--0--(0)--0--0--0-|--0---0---0--0-0-x-|
|--2---2---0--0-0-x-|--0---0--0--(0)--0--0--0-|--2---2---0--0-0-x-|
|--2---2---1--1-1-x-|--1---1--1--(1)--1--1--1-|--2---2---1--1-1-x-|
|--2---2---2--2-2-x-|--2---2--2--(2)--2--2--2-|--2---2---2--2-2-x-|
|--0---0---2--2-2-x-|--2---2--2--(2)--2--2--2-|--0---0---2--2-2-x-|
|----------0--0-0-x-|--0---0--0--(0)--0--0--0-|----------0--0-0-x-|
|
|  Q   Q   q.     A chord diagramE MajorE    Q   A chord diagramE MajorE  A chord diagramE MajorE  +A chord diagramE MajorE   A chord diagramE MajorE  A chord diagramE MajorE  A chord diagramE MajorE    Q   Q   q.     A chord diagramE MajorE
|-------------------|-------------------------|-------------------|
|-14--14--12--------|-12--12-12-(12)-12-12-12-|-14--14--12--------|
|-14--14--13--------|-13--13-13-(13)-13-13-13-|-14--14--13--------|
|-14--14--14--------|-14--14-14-(14)-14-14-14-|-14--14--14--------|
|-------------------|-------------------------|-------------------|
|-------------------|-------------------------|-------------------|


                                              Pre-Chorus
                            A chord diagramA augmentedA       A chord diagramE MajorE          N.C.
   Q   A chord diagramE MajorE  A chord diagramE MajorE  +A chord diagramE MajorE   A chord diagramE MajorE  A chord diagramE MajorE  A chord diagramE MajorE    Q   Q   e A chord diagramE MajorE Q     W
|--0---0--0--(0)--0--0--0-|--0---0---0------||------|
|--0---0--0--(0)--0--0--0-|--2---2---0------||------|
|--1---1--1--(1)--1--1--1-|--2---2---1------||------|
|--2---2--2--(2)--2--2--2-|--2---2---2------||------|
|--2---2--2--(2)--2--2--2-|--0---0---2------||------|
|--0---0--0--(0)--0--0--0-|----------0------||------|
|
|  Q   A chord diagramE MajorE  A chord diagramE MajorE  +A chord diagramE MajorE   A chord diagramE MajorE  A chord diagramE MajorE  A chord diagramE MajorE    Q   Q   e A chord diagramE MajorE Q     W
|-------------------------|-----------------||------|
|-12--12-12-(12)-12-12-12-|-14--14--12------||------|
|-13--13-13-(13)-13-13-13-|-14--14--13------||------|
|-14--14-14-(14)-14-14-14-|-14--14--14------||------|
|-------------------------|-----------------||------|
|-------------------------|-----------------||------|


  Gtr III
  W          Q  Q  Q  Q    A chord diagramE MajorE A chord diagramE MajorE A chord diagramE MajorE A chord diagramE MajorE Q  Q
|----------|-------------|---------------||
|----------|-------------|---------------||
|----------|-------------|---------------||
|----------|----2-----2--|-----2-2-------||
|----------|-------2-----|-2-2-----2-----||
|----------|-------------|---------------||


 Chorus
  A chord diagramE MajorE                                                    A chord diagramC# minorC#m
  Gtr I
   Q  A chord diagramE MajorE A chord diagramE MajorE  A chord diagramE MajorE  A chord diagramE MajorE     +S  S  A chord diagramE MajorE     Q   A chord diagramE MajorE A chord diagramE MajorE A chord diagramE MajorE A chord diagramE MajorE +S  S A chord diagramE MajorE    Q  A chord diagramE MajorE A chord diagramE MajorE A chord diagramE MajorE A chord diagramE MajorE +S  S A chord diagramE MajorE
|----------------------------|-----------------------|---------------------|
|--9--9-9--9--9-----(9)----9-|---9---9-9-9-9-(9)---9-|--5--5-5-5-5-(5)---5-|
|--9--9-9--9--9-----(9)----9-|---9---9-9-9-9-(9)---9-|--6--6-6-6-6-(6)---6-|
|--9--9-9--9--9-----(9)----9-|---9---9-9-9-9-(9)---9-|--6--6-6-6-6-(6)---6-|
|--7--7-7--7--7-----(7)----7-|---7---7-7-7-7-(7)---7-|--4--4-4-4-4-(4)---4-|
|----------------------------|-----------------------|---------------------|
|
| Gtr II
|  W                            +H.           Q         W
|----------------------------|-----------------------|---------------------|
|-12-------------------------|-(12)------------------|--9------------------|
|-13-------------------------|-(13)------------------|--9------------------|
|-14-------------------------|-(14)------------------|-11------------------|
|----------------------------|-----------------------|---------------------|
|----------------------------|-----------------------|---------------------|
|
| Gtr III
|  H       E.    S  +A chord diagramE MajorE     A chord diagramE MajorE     H       H              W
|-------------------------11-|--12-------------------|---------------------|
|---------12----14-(14)------|-----------------------|---------------------|
|----------------------------|-----------------------|---------------------|
|----------------------------|-----------------------|---------------------|
|----------------------------|-----------------------|---------------------|
|----------------------------|-----------------------|---------------------|


                      A chord diagramA augmentedA   A6A         A chord diagramA major 6A6   A chord diagramA augmentedA             A chord diagramA major 6A6   A chord diagramA augmentedA A6A A chord diagramA major 6A6
    Q   A chord diagramE MajorE A chord diagramE MajorE A chord diagramE MajorE A chord diagramE MajorE A chord diagramE MajorE A chord diagramE MajorE    Q  A chord diagramE MajorE A chord diagramE MajorE A chord diagramE MajorE  A chord diagramE MajorE      A chord diagramE MajorE  A chord diagramE MajorE     A chord diagramE MajorE  A chord diagramE MajorE      A chord diagramE MajorE  A chord diagramE MajorE A chord diagramE MajorE A chord diagramE MajorE A chord diagramE MajorE A chord diagramE MajorE
|-------------------|-----2-------------2----|-------------2----2---2---|
|---5---5-5-5-5-x-x-|--2--2-2-2--2------2--2-|---2--2------2--2-2-2-2-x-|
|---6---6-6-6-6-x-x-|--2--2-2-2--2------2--2-|---2--2------2--2-2-2-2-x-|
|---6---6-6-6-6-x-x-|--2--2-2-2--2------2--2-|---2--2------2--2-2-2-2-x-|
|---4---4-4-4-4-x-x-|--0--0-0-0--0------0--0-|---0--0------0--0-0-0-0-x-|
|-------------------|------------------------|--------------------------|
|
|  +H.          Q      W                        +H.                 Q
|-------------------|------------------------|--------------------------|
|--(9)--------------|-10---------------------|-(10)---------------------|
|--(9)--------------|--9---------------------|--(9)---------------------|
|-(11)--------------|-11---------------------|-(11)---------------------|
|-------------------|------------------------|--------------------------|
|-------------------|------------------------|--------------------------|
|
|   W                  H      E.    S  +A chord diagramE MajorE  A chord diagramE MajorE     E.    S  +H        Q
|-------------------|------------------------|--------------------------|
|-------------------|---------9--------------|--------------------------|
|-------------------|--------------11-(11)-9-|---8----------------------|
|-------------------|------------------------|--------11-(11)-----------|
|-------------------|------------------------|--------------------------|
|-------------------|------------------------|--------------------------|


  A chord diagramBB
   A chord diagramE MajorE  A chord diagramE MajorE  A chord diagramE MajorE  A chord diagramE MajorE  A chord diagramE MajorE  A chord diagramE MajorE  A chord diagramE MajorE  A chord diagramE MajorE
|-------------------------|
|--4--4--4--4--4--4--4--4-|
|--4--4--4--4--4--4--4--4-|
|--4--4--4--4--4--4--4--4-|
|--2--2--2--2--2--2--2--2-|
|-------------------------|
|
|  A chord diagramE MajorE  A chord diagramE MajorE  A chord diagramE MajorE  A chord diagramE MajorE  A chord diagramE MajorE  A chord diagramE MajorE  A chord diagramE MajorE  A chord diagramE MajorE
|-------------------------|
|-10-10-10-10-10-10-10-10-|
|-11-11-11-11-11-11-11-11-|
|-13-13-13-13-13-13-13-13-|
|-------------------------|
|-------------------------|


 1.                         2.
                                        D.S. al Coda
   A chord diagramE MajorE  A chord diagramE MajorE  A chord diagramE MajorE  A chord diagramE MajorE  A chord diagramE MajorE  A chord diagramE MajorE  e A chord diagramE MajorE      A chord diagramE MajorE  A chord diagramE MajorE  A chord diagramE MajorE  A chord diagramE MajorE  A chord diagramE MajorE  A chord diagramE MajorE  e A chord diagramE MajorE
|-------------------------||-------------------------||
|--4--4--4--4--4--4--4---o||--4--4--4--4--4--4--4----||
|--4--4--4--4--4--4--4----||--4--4--4--4--4--4--4----||
|--4--4--4--4--4--4--4----||--4--4--4--4--4--4--4----||
|--2--2--2--2--2--2--2---o||--2--2--2--2--2--2--2----||
|-------------------------||-------------------------||
|
|  A chord diagramE MajorE  A chord diagramE MajorE  A chord diagramE MajorE  A chord diagramE MajorE  A chord diagramE MajorE  A chord diagramE MajorE  A chord diagramE MajorE A chord diagramE MajorE      A chord diagramE MajorE  A chord diagramE MajorE  A chord diagramE MajorE  A chord diagramE MajorE  A chord diagramE MajorE  A chord diagramE MajorE  A chord diagramE MajorE A chord diagramE MajorE
|-------------------------||-------------------------||
|-10-10-10-10-10-10-10---o||-10-10-10-10-10-10-10----||
|-11-11-11-11-11-11-11----||-11-11-11-11-11-11-11----||
|-13-13-13-13-13-13-13----||-13-13-13-13-13-13-13----||
|------------------------o||-------------------------||
|-------------------------||-------------------------||


 Outro
  &
  A chord diagramBB
   A chord diagramE MajorE  A chord diagramE MajorE      A chord diagramE MajorE      A chord diagramE MajorE  A chord diagramE MajorE A chord diagramE MajorE  A chord diagramE MajorE  A chord diagramE MajorE
|--------------------------------|
|--4--4------4------4--4-4--4--4-|
|--4--4------4------4--4-4--4--4-|
|--4--4------4------4--4-4--4--4-|
|--2--2------2------2--2-2--2--2-|
|--------------------------------|
|
|  A chord diagramE MajorE  S  S  +S   S  A chord diagramE MajorE  Q    A chord diagramE MajorE  A chord diagramE MajorE
|--------------------------------|
|-10-10-10-(10)-10-10-10---10-10-|
|-11-11-11-(11)-11-11-11---11-11-|
|-13-13-13-(13)-13-13-13---13-13-|
|--------------------------------|
|--------------------------------|


                                   A chord diagramE MajorE
   A chord diagramE MajorE  A chord diagramE MajorE      A chord diagramE MajorE      A chord diagramE MajorE  A chord diagramE MajorE  A chord diagramE MajorE  e A chord diagramE MajorE    Q    A chord diagramE MajorE  A chord diagramE MajorE  +A chord diagramE MajorE   A chord diagramE MajorE  A chord diagramE MajorE  A chord diagramE MajorE
|--------------------------------|--0----0--0--(0)--0--0--0-|
|--4--4------4------4--4--4--4---|--0----0--0--(0)--0--0--0-|
|--4--4------4------4--4--4--4---|--1----1--1--(1)--1--1--1-|
|--4--4------4------4--4--4--4---|--2----2--2--(2)--2--2--2-|
|--2--2------2------2--2--2--2---|--2----2--2--(2)--2--2--2-|
|--------------------------------|--0----0--0--(0)--0--0--0-|
|
|  A chord diagramE MajorE  S  S  +S   S  A chord diagramE MajorE  A chord diagramE MajorE  A chord diagramE MajorE  A chord diagramE MajorE A chord diagramE MajorE    e A chord diagramE MajorE  A chord diagramE MajorE  A chord diagramE MajorE  +A chord diagramE MajorE   A chord diagramE MajorE  A chord diagramE MajorE  A chord diagramE MajorE
|--------------------------------|--------------------------|
|-10-10-10-(10)-10-10-10-10-10---|-12---12-12-(12)-12-12-12-|
|-11-11-11-(11)-11-11-11-11-11---|-13---13-13-(13)-13-13-13-|
|-13-13-13-(13)-13-13-13-13-13---|-14---14-14-(14)-14-14-14-|
|--------------------------------|--------------------------|
|--------------------------------|--------------------------|


  A chord diagramA augmentedA          A chord diagramE MajorE                                        A chord diagramA augmentedA           A chord diagramE MajorE
   Q    Q     A chord diagramE MajorE  A chord diagramE MajorE  A chord diagramE MajorE  A chord diagramE MajorE    Q     A chord diagramE MajorE  A chord diagramE MajorE +A chord diagramE MajorE   A chord diagramE MajorE  A chord diagramE MajorE  A chord diagramE MajorE    Q     Q     A chord diagramE MajorE  A chord diagramE MajorE  A chord diagramE MajorE  A chord diagramE MajorE
|--0----0-----0--0--0--0-|--0-----0--0-(0)--0--0--0-|--0-----0-----0--0--0--0-|
|--2----2-----0--0--0--0-|--0-----0--0-(0)--0--0--0-|--2-----2-----0--0--0--0-|
|--2----2-----1--1--1--1-|--1-----1--1-(1)--1--1--1-|--2-----2-----1--1--1--1-|
|--2----2-----2--2--2--2-|--2-----2--2-(2)--2--2--2-|--2-----2-----2--2--2--2-|
|--0----0-----2--2--2--2-|--2-----2--2-(2)--2--2--2-|--0-----0-----2--2--2--2-|
|-------------0--0--0--0-|--0-----0--0-(0)--0--0--0-|--------------0--0--0--0-|
|
|  e A chord diagramE MajorE  A chord diagramE MajorE  A chord diagramE MajorE  A chord diagramE MajorE  A chord diagramE MajorE  A chord diagramE MajorE  A chord diagramE MajorE    A chord diagramE MajorE  A chord diagramE MajorE  A chord diagramE MajorE  A chord diagramE MajorE  A chord diagramE MajorE   A chord diagramE MajorE  A chord diagramE MajorE  A chord diagramE MajorE    A chord diagramE MajorE  A chord diagramE MajorE  A chord diagramE MajorE  A chord diagramE MajorE  A chord diagramE MajorE  A chord diagramE MajorE  A chord diagramE MajorE  A chord diagramE MajorE
|------------------------|--------------------------|-------------------------|
|-14---14-14-12-12-12-12-|-12-12-12-12-12--12-12-12-|-14-14-14-14-12-12-12-12-|
|-14---14-14-13-13-13-13-|-13-13-13-13-13--13-13-13-|-14-14-14-14-13-13-13-13-|
|-14---14-14-14-14-14-14-|-14-14-14-14-14--14-14-14-|-14-14-14-14-14-14-14-14-|
|------------------------|--------------------------|-------------------------|
|------------------------|--------------------------|-------------------------|


                            A chord diagramA augmentedA            A chord diagramE MajorE
   Q   A chord diagramE MajorE  A chord diagramE MajorE  +A chord diagramE MajorE   A chord diagramE MajorE  A chord diagramE MajorE  A chord diagramE MajorE    Q      A chord diagramE MajorE  A chord diagramE MajorE  e A chord diagramE MajorE Q
|--0---0--0--(0)--0--0--0-|--0------0--0--0------*|
|--0---0--0--(0)--0--0--0-|--2------2--2--0------*|
|--1---1--1--(1)--1--1--1-|--2------2--2--1------*|
|--2---2--2--(2)--2--2--2-|--2------2--2--2------*|
|--2---2--2--(2)--2--2--2-|--0------0--0--2------*|
|--0---0--0--(0)--0--0--0-|---------------0------*|
|
|  Q   A chord diagramE MajorE  A chord diagramE MajorE  +A chord diagramE MajorE   A chord diagramE MajorE  A chord diagramE MajorE  A chord diagramE MajorE    E.  S  A chord diagramE MajorE  A chord diagramE MajorE  e A chord diagramE MajorE Q
|-------------------------|----------------------*|
|-12--12-12-(12)-12-12-12-|-14--14-14-14-12------*|
|-13--13-13-(13)-13-13-13-|-14--14-14-14-13------*|
|-14--14-14-(14)-14-14-14-|-14--14-14-14-14------*|
|-------------------------|----------------------*|
|-------------------------|----------------------*|


Duration 🏷Legend
---------------
W - whole; H - half; Q - quarter; A chord diagramE MajorE - 8th; S - 16th; T - 32nd; X - 64th; a - acciaccatura
+ - note tied to previous; . - note dotted; .. - note double dotted
Uncapitalized letters represent notes that are staccato (1/2 duration)
Irregular groupings are notated above the duration line
Duration letters will always appear directly above the note/fret number it represents the
duration for.  Duration letters with no fret number below them represent rests.  Multi-
bar rests are notated in the form Wxn, where n is the number of bars to rest for.  Low
melody durations appear below the staff

Tablature 🏷Legend
----------------
 h   - hammer-on
 p   - pull-off
 b   - bend
 pb  - pre-bend
 r   - bend release (if no number after the r, then release immediately)
 /\  - slide into or out of (from/to "nowhere")
 s   - legato slide
 S   - shift slide
  - natural harmonic
[n]  - artificial harmonic
n(n) - tapped harmonic
 ~   - vibrato
 tr  - trill
 T   - tap
 TP  - trem. picking
 PM  - palm muting
\n/  - tremolo bar dip; n = amount to dip
 \n  - tremolo bar down
 n/  - tremolo bar up
/n\  - tremolo bar inverted dip
 =   - hold bend; also acts as connecting device for hammers/pulls
 <>  - volume swell (louder/softer)
 x   - on rhythm slash represents muted slash
 o   - on rhythm slash represents single note slash

Misc 🏷Legend
-----------
 |  - bar
||  - double bar
||o - repeat start
o|| - repeat end
*|  - double bar (ending)
 :  - bar (freetime)
 $  - Segno
 &  - Coda
Tempo markers -  = BPM(8/16=s8/s16), where s8 = swing 8ths, s16 = swing 16ths

Other versions of Do Wah Diddy Diddy

Do wah diddy diddyChords
Do wah diddy diddy (Ver. 2)Chords

Almost there ...

Sign in to get your own page with links to favourite songs and more. You are just one click away...

Login with Facebook Login with Google