Log in

One click and you are in

Login with Facebook Login with Google

Why sign up and log in

Guitar Tabs Explorer
Aimee Mann tabs for You could make

Guitar tabs with lyrics

YOU COULD MAKE A chord diagramA augmentedA KILLING (Aimee Mann)
--------------------------------------

This is on the "I'm with Stupid" album. All the following is written as if
played in A chord diagramG+G (at the knut).
Album
-----
On the album this track is played in A chord diagramBB (Capo 4th fret).


[Intro]:

|  A chord diagramG+G A chord diagramE minor 7Em7 A chord diagramD MajorD A chord diagramFF  |  A chord diagramC majorC A chord diagramG+G A chord diagramD MajorD A chord diagramC majorC  |  A chord diagramC majorC A chord diagramC majorC A chord diagramC majorC A chord diagramC majorC  |    x 2


With this played over the top by heavily overdriven electric gtr:

   A chord diagramA augmentedA -3------2-0---------3-------2-------
   A chord diagramE MajorE ------------3-----------------------

   A chord diagramA augmentedA -3------2-0--------h--------0-------
   A chord diagramE MajorE ------------3-----0-3-----3---------


[Verse]:
A chord diagramG+G        A chord diagramE minor 7Em7     A chord diagramD MajorD  (A chord diagramDsusDsus)  A chord diagramD MajorD    A chord diagramFF          A chord diagramC majorC       A chord diagramFF    A chord diagramC majorC
There ..
and ..
simply   ..

[Chorus]:
||            A chord diagramC majorC      A chord diagramG+G         A chord diagramD MajorD  A chord diagramFF  A chord diagramC majorC  .||
|| so you ...||    x3 (on the 3rd time, skip the A chord diagramFF
                                                   and hold the last A chord diagramC majorC 6
beats)


I wish ..
then ...
'til it ..


so you ..x3


I ..
or ..
or try ..


or i ... . .  x4

aahh aah etc.  (chords as for chorus)


Live
----

Live, Aimee plays this in A chord diagramBb majorBb (Capo 3rd fret). The live arrangement is for
(mainly) acoustic guitar. It's basically the same as above, but with picking
like this:


[Intro]:

3 bars (play once only, not like above):

First Bar:
       A chord diagramG+G               A chord diagramE minor 7Em7                A chord diagramD MajorD                 A chord diagramFF    F(add2)
    e--3-------------------------------------------2-2-2--------------------|
    B--0----------------------------3-----3--------3-3-3----1-----1-----h-p-|
    G--0------------0-----------0---0-----2--------2-2-2----2-----0----0-2-0|
    D--0----------0-------------2---------0-----------------3-----3---------|
    A-----------2-------2---------------------------------------------------|
    E-------------------0---------------------------------------------------|
beats  ^                ^                 ^                 ^

2nd Bar:
       A chord diagramC majorC          Am7/B A chord diagramG+G                  A chord diagramD MajorD                A chord diagramC majorC
    e--------------------------------3-3-3------------2-2-2-----------0-0-0|
    B--------------------------------0-0-0------------3-3-2-----------1-1-1|
    G-(0)----------sl---0------------0-0-0------------2-2-2-----------0-0-0|
    D--2--------2-2-(0)-0------------------0-------------------------------|
    A--3--------3-3--2--2-----------------------------------3--------------|
    E-------------------3*-------------------------------------------------|
beats  ^                ^                  ^                ^

3rd Bar:
       A chord diagramC majorC                A chord diagramC majorC                 A chord diagramC majorC                 A chord diagramC majorC
    e-------------0-0-0-------------0-0-0------------0-0-0------------0-0-0|
    B-------------1-1-1-------------1-1-1------------1-1-1------------1-1-1|
    G-------------0-0-0-------------0-0-0------------0-0-0------------0-0-0|
    D----------------------------------------------------------------------|
    A--3----------------3-----------------3-----------------3--------------|
    E----------------------------------------------------------------------|
beats  ^                ^                 ^                 ^

This is played as three 'phrases'   A chord diagramG+G A chord diagramE minor 7Em7 A chord diagramD MajorD A chord diagramFF A chord diagramC majorC     A chord diagramG+G A chord diagramD MajorD A chord diagramC majorC    A chord diagramC majorC A chord diagramC majorC A chord diagramC majorC C, so hit
the A chord diagramG+G in the second bar (Marked *) hard to make it sound like a new phrase.


Verse/Chorus

Chords as per album version. Picking is the root/bass note of each chord held
for about three-quarters of a beat followed by three quick strums of the top
three strings (like in the last bar of the intro of the live version).


Only other difference from the CD is trills on the A chord diagramC majorC and A chord diagramFF of each line of the

verse:


                A chord diagramC majorC            A chord diagramFF        A chord diagramC majorC
             e -0---0--------1-------(0)--
             A chord diagramBB -1---1--------1---h-p-(1)--
             A chord diagramG+G -0---0---h-p--2--0-2-0-----
             A chord diagramD MajorD -2---2--0-2-0-3--------2---
             A chord diagramA augmentedA -3---3-----------------3---
             A chord diagramE MajorE ---------------------------
  . . . . . .  habit
 . . . . . .  tragic
 . . . . . . . have it     . . .etc


Chords
        EADGBe
A chord diagramG+G       320003
A chord diagramE minor 7Em7     022030
A chord diagramD MajorD       xx0232
A chord diagramDsusDsus    xx0233
A chord diagramFF       xx3211
F(add2) xx3011
Am7/B   x20010
A chord diagramC majorC       x32010    (N.B. sometimes x32013 in last bar of intro)

h is a hammer-on
p is a pull-off
sl is a slide


Enjoy! Comments, corrections, etc. welcome.

Nic

Nic Boulton@mercury.co.uk

Other versions of You Could Make

You could make a killingChords
You could make a killing ukuleleChords

Almost there ...

Sign in to get your own page with links to favourite songs and more. You are just one click away...

Login with Facebook Login with Google