Log in

One click and you are in

Login with Facebook Login with Google

Why sign up and log in

Guitar Tabs Explorer
Aimee Mann tabs for Ive had it

Guitar tabs

I couldn't figure out the parts behind the Chorus', so
feel free to fill in the blanks...

If you find errors (which I'm sure there's a few) or you have some
Aimee Mann tab (or your just a fan!) please drop me a line at
OvenMaster@AOL.COM

I've Had It -- Aimee Mann
Transcribed by James Jude McCarty

A chord diagramC majorC                                 A chord diagramG+G
-------------------------------------------------------------------
-----1----1-------1------1---------0-------0------0-------0-
-----0----0-------0------0---------0-------0------0-------0-
------------------------------------------------------------------
-0-----0-----0-3----3------3--------------------------------
----------------------------------3-------3------3------3-----

A chord diagramC majorC                               A chord diagramG+G
---------------------------------------------------------------------
-----1----1-------1------1---------0-------0--------0-------0-
-----0----0-------0------0---------0-------0--------0-------0-
---------------------------------------------------------------------
-0-----0-----0-3----3------3------------------------------------
----------------------------------3------3----------3------3------

A chord diagramC majorC                               A chord diagramG+G
----------------------------------------------------------------
-----1----1-------1-----1---------0-------0------0------0-
-----0----0-------0-----0---------0-------0------0------0-
-----------------------------------------------------------------
----------------------------------------------------------------
-0-----0-----0-3----3-----3--------------------------------
---------------------------------3-------3-------3------3----
              We made ...

A chord diagramC majorC                                 A chord diagramG+G                A chord diagramD MajorD

-------------------------------------------------------2-------2---
----1-----1--------1-----1----------0------0-------3-------3---
----0-----0--------0-----0----------0------0--------------------
----------------------------------------------------0-------0------
-0-----0-----0-3-----3------3------------------------------------
-----------------------------------3------3--------------------------
With ...

A chord diagramC majorC                       A chord diagramG+G                  A chord diagramC majorC                     A chord diagramG+G
-----0------------------------------------0--------------------------
-----
-------1--------1----------0-----0--------1------1----------0-----0--
---------0--------0--------0-----0----------0-------0-------0-----0--
-
-2------------------2-----------------2------------------2-----------
----
------------3------------------------------------3-------------------
------
-------------------------3-----3------------------------------3---3--
------
Boo..

A chord diagramD MajorD                 A chord diagramC majorC
        A chord diagramG+G
--2--2--2^0-----0----------------------------------------------------
----------------------
---------------3--1--1------1-------1-1------1----1---1--1----0------
-0--0----0--0-
-------------------------------0------0----0--0----0----0--0----0----
---0--0----0--0-
--0--0--0------------------------------------------------------------
-------------------------
-----------------------3---------3-------3--------3----3------3-----3
---3------------------
---------------------------------------------------------------------
-----------3--3--3---3--
leave ..

A chord diagramC majorC                                 A chord diagramG+G                A chord diagramD MajorD
-------------------------------------------------2------2-
---1----1-------1----1------0-------0----3-----3-----
---0----0-------0----0------0-------0-----------------
---------------------------------------------0------0----
-0----0----0-3---3-----3------------------------------
-----------------------------------3--------3------------
  He ...

A chord diagramC majorC                       A chord diagramG+G                  A chord diagramC majorC                     A chord diagramG+G
-----0------------------------------------0--------------------------
-----
-------1--------1----------0-----0--------1------1----------0-----0--
---------0--------0--------0-----0----------0-------0-------0-----0--
-
-2------------------2-----------------2------------------2-----------
----
------------3------------------------------------3-------------------
------
-------------------------3-----3------------------------------3---3--
------
get it ...


A chord diagramD MajorD                          A chord diagramC majorC
--2-----2-----2^0--------0-------------------
-----------------------3---1-----1------1-----
-----------------------------------0------0----
--0-----0-----0-------------------------------
----------------------------3---------3--------
-------------------------------------------------
can't ...

Oh ...
If ...
And ... and

A chord diagramC majorC                               A chord diagramG+G
---------------------------------------------------------------------
-----1----1-------1------1---------0-------0--------0-------0-
-----0----0-------0------0---------0-------0--------0-------0-
---------------------------------------------------------------------
-0-----0-----0-3----3------3------------------------------------
----------------------------------3------3----------3------3------
I've ..

A chord diagramC majorC                               A chord diagramG+G
---------------------------------------------------------------------
-----------
-----1----1-------1------1---------0-------0------------0-------0----
----
-----0----0-------0------0---------0-------0------------0-------0----
----
---------------------------------------------------------------------
----------
-0-----0-----0-3----3------3-----------------------------------------
-----
----------------------------------3-------3------------3------3------
------
I've ..

A chord diagramC majorC                               A chord diagramG+G
---------------------------------------------------------------------
--------
-----1----1-------1-----1---------0-------0-----------0---------0----
--
-----0----0-------0-----0---------0-------0-----------0---------0----
--
---------------------------------------------------------------------
--------
-0-----0-----0-3----3-----3------------------------------------------
----
---------------------------------3-------3-----------3--------3------
-----
         So we ..

A chord diagramC majorC                                 A chord diagramG+G                A chord diagramD MajorD
-------------------------------------------------2------2-
---1----1-------1----1------0-------0----3-----3-----
---0----0-------0----0------0-------0-----------------
---------------------------------------------0------0----
-0----0----0-3---3-----3------------------------------
-----------------------------------3--------3------------
 And ..

A chord diagramD MajorD                 A chord diagramC majorC
      A chord diagramG+G
--2--2--2^0-----0----------------------------------------------------
----------------------
---------------3--1--1------1-------1-1------1----1---1--1-----0-----
-0---0----0--0-
-------------------------------0------0----0--0----0----0--0----0----
---0--0----0--0-
--0--0--0------------------------------------------------------------
-------------------------
-----------------------3---------3-------3--------3----3------3-----3
---3------------------
---------------------------------------------------------------------
-----------3--3--3---3--

Though ...
I


A chord diagramD MajorD                         A chord diagramC majorC
--2-----2-----2^0--------0-------------------
-----------------------3---1-----1------1-----
-----------------------------------0------0----
--0-----0-----0--------------------------------
----------------------------3---------3--------
-------------------------------------------------
felt .....

Oh ...
If ...
And ...

A chord diagramC majorC                                 A chord diagramG+G
---------------------------------------------------------------------
----------
-----1----1-------1------1---------0-------0------------0-------0----
----
-----0----0-------0------0---------0-------0------------0-------0----
----
---------------------------------------------------------------------
----------
-0-----0-----0-3----3------3-----------------------------------------
-----
----------------------------------3-------3------------3------3------
------
You've ...

A chord diagramC majorC                               A chord diagramG+G                    A chord diagramB7B7
------------------------------------------------------2-----2--------
---
-----1----1-------1------1---------0-------0------0-----0-----------
-----0----0-------0------0---------0-------0-------------------------
-
---------------------------------------------------------------------
-
-0-----0-----0-3----3------3-------------------2-----2---------------
----------------------------------3-------3--------------------------
-----
You've ..
 Like
A chord diagramE minorEm            A chord diagramD MajorD      A chord diagramC majorC      A chord diagramG+G          A chord diagramC majorC A chord diagramCmaj7Cmaj7 A chord diagramG+G
---------------------------------------------------------------------
--
---0------0-----3---3---1---1----0---0---1---0------0---0---
---0------0-----2---2---0---0----0---0---0---0------0---0---
---------------0---0-----------------------------------------------
-------------------------3---3-------------3----3--------------
-0-----0-------------------------3----3------------------3--3-----
 most ...

  A chord diagramC majorC A chord diagramCmaj7Cmaj7 A chord diagramG+G   A chord diagramD MajorD               A chord diagramC majorC                             A chord diagramG+G
--------------------2---2---2^0--------0-----------------------------
------------
1---0---0----0------------------3--1------1----1----1----1----0---0--
--0--
0---0---0----0-----------------------------------0-----0---0----0---0
----0---
--------------------0---0---0----------------------------------------
-------------
3---3--------------------------------3---3----3------3---3-----------
----------
---------3--3-----------------------------------------------------3--
3-----3---
things ...

A chord diagramC majorC                                 A chord diagramG+G
---------------------------------------------------------------------
-----1----1-------1------1---------0-------0-------0-------0---
-----0----0-------0------0---------0-------0-------0-------0----
---------------------------------------------------------------------
-
-0-----0-----0-3----3------3--------------------------------------
----------------------------------3-------3--------3------3--------

A chord diagramC majorC                               A chord diagramG+G
---------------------------------------------------------------------
-
-----1----1-------1-----1---------0-------0------0-------0------
-----0----0-------0-----0---------0-------0------0-------0------
---------------------------------------------------------------------
-
-0-----0-----0-3----3-----3---------------------------------------
---------------------------------3-------3-------3------3-----------
           When ...

A chord diagramC majorC                                 A chord diagramG+G                A chord diagramD MajorD
---------------------------------------------------2-------2------
----1-----1--------1-----1----------0-----0--------3-------3-
----0-----0--------0-----0----------0-----0-------------------
---------------------------------------------------0-------0-----
-0-----0-----0-3-----3------3---------------------------------
-----------------------------------3------3---------------------
 And we ...

A chord diagramC majorC                         A chord diagramG+G                    A chord diagramC majorC
  A chord diagramG+G
----0-------------------------------------0--------------------------
-------
-------1--------1---------0-------0--------1------1----------0------0
--
---------0--------0-------0-------0-----------0-----0--------0------0
---
-2-------------------2----------------2-----------------2------------
------
------------3---------------------------------------3----------------
--------
--------------------------3-----3----------------------------3------3
--------
I guess ...
.


A chord diagramD MajorD                         A chord diagramC majorC
--2-----2-----2^0--------0-------------------
-----------------------3---1-----1------1-----
-----------------------------------0------0----
--0-----0-----0--------------------------------
----------------------------3---------3--------
-------------------------------------------------
expecting ..

Oh ....
If ...
And .. 'cause

A chord diagramC majorC                                 A chord diagramG+G
---------------------------------------------------------------- ]
-----1----1-------1------1--------0-----0-------0-------0- ]
-----0----0-------0------0--------0-----0-------0-------0- ]
---------------------------------------------------------------- ]
-0-----0-----0-3----3-----3-------------------------------- ]
----------------------------------3-----3------3------3-----  ]
I've had it                                                    ]
Repeat
                                                                 ]
until
A chord diagramC majorC                               A chord diagramG+G                             ]
end...
--------------------------------------------------------------   ]
-----1----1-------1------1---------0----0------0-------0   ]
-----0----0-------0------0---------0----0------0-------0   ]
--------------------------------------------------------------   ]
-0-----0-----0-3----3------3-----------------------------   ]
----------------------------------3-----3-----3------3----    ]
I've had it


That's all folks...

Other versions of I've Had It

I've had itChords

Almost there ...

Sign in to get your own page with links to favourite songs and more. You are just one click away...

Login with Facebook Login with Google