Log in

One click and you are in

Login with Facebook Login with Google

Why sign up and log in

Guitar Tabs Explorer
Aimee Mann tabs for Coming up close

Guitar tabs with lyrics

I've done nothing but take from you guys for months and months. So now
I want to give some back. Hope you all like the song, I'm pretty sure
this is correct. Please let me know that you recieved it so my future
transmits aren't a waste of time. Thanks for the invaluable service
you provide. Tim

  [ Part 2: "Attached Text" ]

"Coming Up Close"  by Aimee Mann. Her finest hour IMHO

                                 (transcribed by Tim JB Durham)

Played with capo on fret IV. (Song is in A chord diagramG#G#). Transcribed as if fourth fret were the nut...
There are three guitars going on this song, an acoustic 6-string, a pedal steel, and an electric 6-string as well as a piano but if you are all by yourself.....


Intro starts w/ upstroked E, then an A chord diagramE MajorE major scale run:

e----0--2--4-------------------------------------------------------------4p2p0---0-------
a--------------0---------2----0----------------0----------------2-p-0-------------2-------
d-------------------2-------------2-h-4-p-2------2-h-4-p-2----------------------2------
g------------------------------------------------------------------------------------1-------
b------------------------------------------------------------------------------------0-------
e------------------------------------------------------------------------------------0-------

A chord diagramE MajorE
One night ..
A chord diagramF# minorF#m
went ..
A chord diagramA augmentedA
out ..
A chord diagramF# minorF#m
I felt ..
A chord diagramE MajorE
There ..
A chord diagramF# minorF#m
we ..
A chord diagramA augmentedA
we ..
A chord diagramF# minorF#m
we ..

A chord diagramC majorC     A chord diagramE MajorE                 A chord diagramA augmentedA
H    Coming ..
O     A chord diagramA augmentedA                                                 A chord diagramE MajorE
R     everything ..
U                A chord diagramA augmentedA
S     Come ..
        A chord diagramA augmentedA                      A chord diagramE MajorE
        and oh..
        A chord diagramF# minorF#m
        don't ..
        A chord diagramF# minorF#m                                                     A chord diagramA augmentedA
        a dream ..
        A chord diagramA augmentedA                 A chord diagramE MajorE
        I ..
        A chord diagramC# minorC#m
        but ..
        A chord diagramC# minorC#m                                           A chord diagramA augmentedA
        I felt ..

Then it turns around like this:

e------x----x----x----0-------------------------------------------------
a------x----x----x----2-------------------------------------------------
d------7----6----4----2-------------------------------------------------
g------6----4----2----1-------------------------------------------------
b------0----0----0----0----------------------------------------------------
e------0----0----0----0---------------------------------------------------


verse


chorus

Please send comments and corrections to TJBD@ix.Netcom.com.  Skoal

Almost there ...

Sign in to get your own page with links to favourite songs and more. You are just one click away...

Login with Facebook Login with Google