Log in

One click and you are in

Login with Facebook Login with Google

Why sign up and log in

Guitar Tabs Explorer
Manic Street Preachers guitar tabs for Soul contamination

Soul Contamination tab by Manic Street Preachers

Manic Street Preachers guitar tabs for Soul contamination

Guitar tabs with lyrics

Tuning: Standard (E A D G B E)

Key: A chord diagramE MajorE

Difficulty: Novice

Standard Tuning
  Intro:

Guitar One:

   A chord diagramB5B5               A chord diagramA5A5               A chord diagramG5G5
                                     pm
e|-----------------------------------------------------------------|
B|-----------------------------------------------------------------|
G|-4----------------2----------------------------------------------|
D|-4----------------2----------------5-5-5-5-5-5-5-5-5-5-5-5-5-5-5-|
A|-2----------------0----------------5-5-5-5-5-5-5-5-5-5-5-5-5-5-5-|
E|-----------------------------------3-3-3-3-3-3-3-3-3-3-3-3-3-3-3-|

Guitar Two:

e|------------------------------------------------------------3-----------3---|
B|------------------------------------------------3-------3---3-3---3-3---3-3-|
G|------------------------------------------3h4h5---5-3-5-5b7---7r5-5-5b7---7-|
D|-------------------------------------0h3h5----------------------------------|
A|-----------------------------------5----------------------------------------|
E|----------------------------------------------------------------------------|


  Verse:

Guitar one:

   A chord diagramE5E5              A chord diagramD5D5              A chord diagramB5B5              A chord diagramA5A5
e|-----------------------------------------------------------------|
B|-----------------------------------------------------------------|
G|-----------------------------------------------------------------|
D|-----------------7-7-7-7-7-7-7-7-4-4-4-4-4-4-4-4-----------------|
A|-2-2-2-2-2-2-2-2-5-5-5-5-5-5-5-5-2-2-2-2-2-2-2-2-7-7-7-7-7-7-7-7-|
E|-0-0-0-0-0-0-0-0---------------------------------5-5-5-5-5-5-5-5-|
   Everyone     is staring with the glaze       of obsession

   A chord diagramG5G5                              A chord diagramE5E5                          A chord diagramA5A5 A chord diagramD5D5
e|-----------------------------------------------------------------|
B|-----------------------------------------------------------------|
G|-----------------------------------------------------------------|
D|---------------------------------------------------------------7-|
A|-5-5-5-5-5-5-5-5-5-5-5-5-5-5-5-5-2-2-2-2-2-2-2-2-2-2-2-2-2-2-7-5-|
E|-3-3-3-3-3-3-3-3-3-3-3-3-3-3-3-3-0-0-0-0-0-0-0-0-0-0-0-0-0-0-5---|
   Interlocking cartels bypassing the bone

   A chord diagramE5E5              A chord diagramD5D5              A chord diagramB5B5              A chord diagramA5A5
e|-----------------------------------------------------------------|
B|-----------------------------------------------------------------|
G|-----------------------------------------------------------------|
D|-----------------7-7-7-7-7-7-7-7-4-4-4-4-4-4-4-4-----------------|
A|-2-2-2-2-2-2-2-2-5-5-5-5-5-5-5-5-2-2-2-2-2-2-2-2-7-7-7-7-7-7-7-7-|
E|-0-0-0-0-0-0-0-0---------------------------------5-5-5-5-5-5-5-5-|
   The empty statement of art school dissension

   A chord diagramG5G5                              A chord diagramE5E5                          A chord diagramA5A5 A chord diagramD5D5
e|-----------------------------------------------------------------|
B|-----------------------------------------------------------------|
G|-----------------------------------------------------------------|
D|---------------------------------------------------------------7-|
A|-5-5-5-5-5-5-5-5-5-5-5-5-5-5-5-5-2-2-2-2-2-2-2-2-2-2-2-2-2-2-7-5-|
E|-3-3-3-3-3-3-3-3-3-3-3-3-3-3-3-3-0-0-0-0-0-0-0-0-0-0-0-0-0-0-5---|
   Institutionalised expression of mass control

Guitar Two:

   Pm
e|-12--12-----12------12--12-----12------12--12-----12------12--12-----12------|
B|---------12----12-----------12----12-----------12----12-----------12----12---|
G|-----------------------------------------------------------------------------|
D|-----------------------------------------------------------------------------|
A|-----------------------------------------------------------------------------|
E|-----------------------------------------------------------------------------|

   Pm
e|-12--12-----12------12--12-----12--------------------------------------------|
B|---------12----12-----------12----12--/9--9-9-9-10-9--/9--9-9-9-10-9-------\-|
G|--------------------------------------/9--9-9-9-9--9--/9--9-9-9-9--9-------\-|
D|--------------------------------------/9--9-9-9-9--9--/9--9-9-9-9--9-------\-|
A|-----------------------------------------------------------------------------|
E|-----------------------------------------------------------------------------|

   Pm
e|-12--12-----12------12--12-----12------12--12-----12------12--12-----12------|
B|---------12----12-----------12----12-----------12----12-----------12----12---|
G|-----------------------------------------------------------------------------|
D|-----------------------------------------------------------------------------|
A|-----------------------------------------------------------------------------|
E|-----------------------------------------------------------------------------|

   Pm
e|-12--12-----12------12--12-----12--------------------------------------------|
B|---------12----12-----------12----12--/9--9-9-9-10-9--/9--9-9-9-10-9-------\-|
G|--------------------------------------/9--9-9-9-9--9--/9--9-9-9-9--9-------\-|
D|--------------------------------------/9--9-9-9-9--9--/9--9-9-9-9--9-------\-|
A|-----------------------------------------------------------------------------|
E|-----------------------------------------------------------------------------|


  Chorus:

Guitar one:

   A chord diagramA5A5                           A chord diagramE5E5
e|-----------------------------------------------------------|
B|-----------------------------------------------------------|
G|-----------------------------------------------------------|
D|------------------------------9--9-9-9-9-9-9-9-9-9-9-9-9-9-|
A|-7--7-7-7-7-7-7-7-7-7-7-7-7-7-7--7-7-7-7-7-7-7-7-7-7-7-7-7-|
E|-5--5-5-5-5-5-5-5-5-5-5-5-5-5------------------------------|
   And when America fills in the hole

   A chord diagramG5G5                           A chord diagramD5D5
e|-----------------------------------------------------------|
B|-----------------------------------------------------------|
G|-----------------------------------------------------------|
D|------------------------------7--7-7-7-7-7-7-7-7-7-7-7-7-7-|
A|-5--5-5-5-5-5-5-5-5-5-5-5-5-5-5--5-5-5-5-5-5-5-5-5-5-5-5-5-|
E|-3--3-3-3-3-3-3-3-3-3-3-3-3-3------------------------------|
   Your pile of misery where centuries be

  A chord diagramA5A5                           A chord diagramE5E5
e|-----------------------------------------------------------|
B|-----------------------------------------------------------|
G|-----------------------------------------------------------|
D|------------------------------9--9-9-9-9-9-9-9-9-9-9-9-9-9-|
A|-7--7-7-7-7-7-7-7-7-7-7-7-7-7-7--7-7-7-7-7-7-7-7-7-7-7-7-7-|
E|-5--5-5-5-5-5-5-5-5-5-5-5-5-5------------------------------|
   And he does win a holiday after a poll

   A chord diagramG5G5                           A chord diagramD5D5
e|-----------------------------------------------------------|
B|-----------------------------------------------------------|
G|-----------------------------------------------------------|
D|------------------------------7--7-7-7-7-7-7-7-7-7-7-7-7-7-|
A|-5--5-5-5-5-5-5-5-5-5-5-5-5-5-5--5-5-5-5-5-5-5-5-5-5-5-5-5-|
E|-3--3-3-3-3-3-3-3-3-3-3-3-3-3------------------------------|
   One per cent interest stand up with glee

   A chord diagramB5B5               A chord diagramA5A5               A chord diagramG5G5
                                     pm
e|-----------------------------------------------------------------|
B|-----------------------------------------------------------------|
G|-4----------------2----------------------------------------------|
D|-4----------------2----------------5-5-5-5-5-5-5-5-5-5-5-5-5-5-5-|
A|-2----------------0----------------5-5-5-5-5-5-5-5-5-5-5-5-5-5-5-|
E|-----------------------------------3-3-3-3-3-3-3-3-3-3-3-3-3-3-3-|


Guitar Two:

   A chord diagramA majorA                            A chord diagramE MajorE
e|-----------------------------------------------------------|
B|-/14~----------------------14\9~------------------------9/-|
G|-/14~----------------------14\9~------------------------9/-|
D|-/14~----------------------14\9~------------------------9/-|
A|-----------------------------------------------------------|
E|-----------------------------------------------------------|

   A chord diagramG MajorG                            A chord diagramD MajorD
e|-----------------------------------------------------------|
B|-12~-----------------------12\7~------------------------7/-|
G|-12~-----------------------12\7~------------------------7/-|
D|-12~-----------------------12\7~------------------------7/-|
A|-----------------------------------------------------------|
E|-----------------------------------------------------------|

   A chord diagramA majorA                            A chord diagramE MajorE
e|-----------------------------------------------------------|
B|-/14~----------------------14\9~------------------------9/-|
G|-/14~----------------------14\9~------------------------9/-|
D|-/14~----------------------14\9~------------------------9/-|
A|-----------------------------------------------------------|
E|-----------------------------------------------------------|

   A chord diagramG MajorG                            A chord diagramD MajorD
e|-----------------------------------------------------------|
B|-12~-----------------------12\7~---------------------------|
G|-12~-----------------------12\7~---------------------------|
D|-12~-----------------------12\7~---------------------------|
A|-----------------------------------------------------------|
E|-----------------------------------------------------------|

   A chord diagramBB                A chord diagramA majorA                A chord diagramG MajorG
e|-----3---------3---------3---------3---------3-------------|
B|-3---3-3---3---3-3---3---3-3---3---3-3---3---3-3-----------|
G|-5b7---7r5-5b7---7r5-5b7---7r5-5b7---7r5-5b7---7r5---------|
D|-----------------------------------------------------------|
A|-----------------------------------------------------------|
E|-----------------------------------------------------------|


  Verse:

Guitar one:

   A chord diagramE5E5              A chord diagramD5D5              A chord diagramB5B5              A chord diagramA5A5
e|-----------------------------------------------------------------|
B|-----------------------------------------------------------------|
G|-----------------------------------------------------------------|
D|-----------------7-7-7-7-7-7-7-7-4-4-4-4-4-4-4-4-----------------|
A|-2-2-2-2-2-2-2-2-5-5-5-5-5-5-5-5-2-2-2-2-2-2-2-2-7-7-7-7-7-7-7-7-|
E|-0-0-0-0-0-0-0-0---------------------------------5-5-5-5-5-5-5-5-|
   Soul contamination spreads the germs of finance

   A chord diagramG5G5                              A chord diagramE5E5                          A chord diagramA5A5 A chord diagramD5D5
e|-----------------------------------------------------------------|
B|-----------------------------------------------------------------|
G|-----------------------------------------------------------------|
D|---------------------------------------------------------------7-|
A|-5-5-5-5-5-5-5-5-5-5-5-5-5-5-5-5-2-2-2-2-2-2-2-2-2-2-2-2-2-2-7-5-|
E|-3-3-3-3-3-3-3-3-3-3-3-3-3-3-3-3-0-0-0-0-0-0-0-0-0-0-0-0-0-0-5---|
   Making weak minds think this is what they want

   A chord diagramE5E5              A chord diagramD5D5              A chord diagramB5B5              A chord diagramA5A5
e|-----------------------------------------------------------------|
B|-----------------------------------------------------------------|
G|-----------------------------------------------------------------|
D|-----------------7-7-7-7-7-7-7-7-4-4-4-4-4-4-4-4-----------------|
A|-2-2-2-2-2-2-2-2-5-5-5-5-5-5-5-5-2-2-2-2-2-2-2-2-7-7-7-7-7-7-7-7-|
E|-0-0-0-0-0-0-0-0---------------------------------5-5-5-5-5-5-5-5-|
  Power facts are brutally sold to worn darkened skin

   A chord diagramG5G5                              A chord diagramE5E5                          A chord diagramA5A5 A chord diagramD5D5
e|-----------------------------------------------------------------|
B|-----------------------------------------------------------------|
G|-----------------------------------------------------------------|
D|---------------------------------------------------------------7-|
A|-5-5-5-5-5-5-5-5-5-5-5-5-5-5-5-5-2-2-2-2-2-2-2-2-2-2-2-2-2-2-7-5-|
E|-3-3-3-3-3-3-3-3-3-3-3-3-3-3-3-3-0-0-0-0-0-0-0-0-0-0-0-0-0-0-5---|
   Arise the new scum arise to the sound of a drum


Guitar Two:

   Pm
e|-12--12-----12------12--12-----12------12--12-----12------12--12-----12------|
B|---------12----12-----------12----12-----------12----12-----------12----12---|
G|-----------------------------------------------------------------------------|
D|-----------------------------------------------------------------------------|
A|-----------------------------------------------------------------------------|
E|-----------------------------------------------------------------------------|

   Pm
e|-12--12-----12------12--12-----12--------------------------------------------|
B|---------12----12-----------12----12--/9--9-9-9-10-9--/9--9-9-9-10-9-------\-|
G|--------------------------------------/9--9-9-9-9--9--/9--9-9-9-9--9-------\-|
D|--------------------------------------/9--9-9-9-9--9--/9--9-9-9-9--9-------\-|
A|-----------------------------------------------------------------------------|
E|-----------------------------------------------------------------------------|

   Pm
e|-12--12-----12------12--12-----12------12--12-----12------12--12-----12------|
B|---------12----12-----------12----12-----------12----12-----------12----12---|
G|-----------------------------------------------------------------------------|
D|-----------------------------------------------------------------------------|
A|-----------------------------------------------------------------------------|
E|-----------------------------------------------------------------------------|

   Pm
e|-12--12-----12------12--12-----12--------------------------------------------|
B|---------12----12-----------12----12--/9--9-9-9-10-9--/9--9-9-9-10-9-------\-|
G|--------------------------------------/9--9-9-9-9--9--/9--9-9-9-9--9-------\-|
D|--------------------------------------/9--9-9-9-9--9--/9--9-9-9-9--9-------\-|
A|-----------------------------------------------------------------------------|
E|-----------------------------------------------------------------------------|


 Chorus:

Guitar one:

   A chord diagramA5A5                           A chord diagramE5E5
e|-----------------------------------------------------------|
B|-----------------------------------------------------------|
G|-----------------------------------------------------------|
D|------------------------------9--9-9-9-9-9-9-9-9-9-9-9-9-9-|
A|-7--7-7-7-7-7-7-7-7-7-7-7-7-7-7--7-7-7-7-7-7-7-7-7-7-7-7-7-|
E|-5--5-5-5-5-5-5-5-5-5-5-5-5-5------------------------------|
  With your desk degrees in civil engineering

   A chord diagramG5G5                           A chord diagramD5D5
e|-----------------------------------------------------------|
B|-----------------------------------------------------------|
G|-----------------------------------------------------------|
D|------------------------------7--7-7-7-7-7-7-7-7-7-7-7-7-7-|
A|-5--5-5-5-5-5-5-5-5-5-5-5-5-5-5--5-5-5-5-5-5-5-5-5-5-5-5-5-|
E|-3--3-3-3-3-3-3-3-3-3-3-3-3-3------------------------------|
   Theyre drawing up plans for a future for themselves

  A chord diagramA5A5                           A chord diagramE5E5
e|-----------------------------------------------------------|
B|-----------------------------------------------------------|
G|-----------------------------------------------------------|
D|------------------------------9--9-9-9-9-9-9-9-9-9-9-9-9-9-|
A|-7--7-7-7-7-7-7-7-7-7-7-7-7-7-7--7-7-7-7-7-7-7-7-7-7-7-7-7-|
E|-5--5-5-5-5-5-5-5-5-5-5-5-5-5------------------------------|
   And sweet daddy buys up a university

   A chord diagramG5G5                           A chord diagramD5D5
e|-----------------------------------------------------------|
B|-----------------------------------------------------------|
G|-----------------------------------------------------------|
D|------------------------------7--7-7-7-7-7-7-7-7-7-7-7-7-7-|
A|-5--5-5-5-5-5-5-5-5-5-5-5-5-5-5--5-5-5-5-5-5-5-5-5-5-5-5-5-|
E|-3--3-3-3-3-3-3-3-3-3-3-3-3-3------------------------------|
   On a mission tied next to suits

   A chord diagramB5B5               A chord diagramA5A5               A chord diagramG5G5
                                     pm
e|-----------------------------------------------------------------|
B|-----------------------------------------------------------------|
G|-4----------------2----------------------------------------------|
D|-4----------------2----------------5-5-5-5-5-5-5-5-5-5-5-5-5-5-5-|
A|-2----------------0----------------5-5-5-5-5-5-5-5-5-5-5-5-5-5-5-|
E|-----------------------------------3-3-3-3-3-3-3-3-3-3-3-3-3-3-3-|


Guitar Two:

   A chord diagramA majorA                            A chord diagramE MajorE
e|-----------------------------------------------------------|
B|-/14~----------------------14\9~------------------------9/-|
G|-/14~----------------------14\9~------------------------9/-|
D|-/14~----------------------14\9~------------------------9/-|
A|-----------------------------------------------------------|
E|-----------------------------------------------------------|

   A chord diagramG MajorG                            A chord diagramD MajorD
e|-----------------------------------------------------------|
B|-12~-----------------------12\7~------------------------7/-|
G|-12~-----------------------12\7~------------------------7/-|
D|-12~-----------------------12\7~------------------------7/-|
A|-----------------------------------------------------------|
E|-----------------------------------------------------------|

   A chord diagramA majorA                            A chord diagramE MajorE
e|-----------------------------------------------------------|
B|-/14~----------------------14\9~------------------------9/-|
G|-/14~----------------------14\9~------------------------9/-|
D|-/14~----------------------14\9~------------------------9/-|
A|-----------------------------------------------------------|
E|-----------------------------------------------------------|

   A chord diagramG MajorG                            A chord diagramD MajorD
e|-----------------------------------------------------------|
B|-12~-----------------------12\7~---------------------------|
G|-12~-----------------------12\7~---------------------------|
D|-12~-----------------------12\7~---------------------------|
A|-----------------------------------------------------------|
E|-----------------------------------------------------------|

   A chord diagramBB                A chord diagramA majorA                A chord diagramG MajorG
e|------------------------------------------------------------3-----------3---|
B|------------------------------------------------3-------3---3-3---3-3---3-3-|
G|------------------------------------------3h4h5---5-3-5-5b7---7r5-5-5b7---7-|
D|-------------------------------------0h3h5----------------------------------|
A|-----------------------------------5----------------------------------------|
E|----------------------------------------------------------------------------|


  Outro:

Guitar One:

   A chord diagramF#5F#5           A chord diagramA5A5              A chord diagramE5E5
e|--------------------------------------------------------------|
B|--------------------------------------------------------------|
G|-------------------------------9--9-9-9-9-9-9-9--9-9-9-9-9-9--|
D|-4--4-4-4-4-4-4-7--7-7-7-7-7-7-9--9-9-9-9-9-9-9--9-9-9-9-9-9--|
A|-4--4-4-4-4-4-4-7--7-7-7-7-7-7-7--7-7-7-7-7-7-7--7-7-7-7-7-7--|
E|-2--2-2-2-2-2-2-5--5-5-5-5-5-5--------------------------------|
   Soul contamination die because you crossed by fire

  A chord diagramF#5F#5           A chord diagramA5A5              A chord diagramE5E5
e|--------------------------------------------------------------|
B|--------------------------------------------------------------|
G|-------------------------------9--9-9-9-9-9-9-9--9-9-9-9-9-9--|
D|-4--4-4-4-4-4-4-7--7-7-7-7-7-7-9--9-9-9-9-9-9-9--9-9-9-9-9-9--|
A|-4--4-4-4-4-4-4-7--7-7-7-7-7-7-7--7-7-7-7-7-7-7--7-7-7-7-7-7--|
E|-2--2-2-2-2-2-2-5--5-5-5-5-5-5--------------------------------|
   Soul contamination poverty expressed in your heart

  A chord diagramF#5F#5           A chord diagramA5A5              A chord diagramE5E5
e|--------------------------------------------------------------|
B|--------------------------------------------------------------|
G|-------------------------------9--9-9-9-9-9-9-9--9-9-9-9-9-9--|
D|-4--4-4-4-4-4-4-7--7-7-7-7-7-7-9--9-9-9-9-9-9-9--9-9-9-9-9-9--|
A|-4--4-4-4-4-4-4-7--7-7-7-7-7-7-7--7-7-7-7-7-7-7--7-7-7-7-7-7--|
E|-2--2-2-2-2-2-2-5--5-5-5-5-5-5--------------------------------|
   Soul contamination arise surrender burn

   A chord diagramF#5F#5           A chord diagramA5A5
e|---------------------------------------------------------------|
B|---------------------------------------------------------------|
G|---------------------------------------------------------------|
D|-4--4-4-4-4-4-4-7--7-7-7-7-7-7-7-7-7-7-7-7-7-7-7-7-7-7-7-7-7-7-|
A|-4--4-4-4-4-4-4-7--7-7-7-7-7-7-7-7-7-7-7-7-7-7-7-7-7-7-7-7-7-7-|
E|-2--2-2-2-2-2-2-5--5-5-5-5-5-5-5-5-5-5-5-5-5-5-5-5-5-5-5-5-5-5-|
   Soul contamination do you rise

   A chord diagramA majorA A chord diagramG#5G#5 A chord diagramF#5F#5 A chord diagramE MajorE
e|--------------------------------------------------------------|
B|--------------------------------------------------------------|
G|--------------------------------------------------------------|
D|-7--6--4--2---------------------------------------------------|
A|-7--6--4--2---------------------------------------------------|
E|-5--4--2--0---------------------------------------------------|
   up


Guitar Two:

e|----19-16---------19-16---------19-16---------19-16-----------|
B|----------17------------17------------17------------17--------|
G|-------------16------------16------------16-------------------|
D|--------------------------------------------------------------|
A|--------------------------------------------------------------|
E|--------------------------------------------------------------|
  Soul contamination die because you crossed by fire

e|----19-16---------19-16---------19-16---------19-16-----------|
B|----------17------------17------------17------------17--------|
G|-------------16------------16------------16-------------------|
D|--------------------------------------------------------------|
A|--------------------------------------------------------------|
E|--------------------------------------------------------------|
  Soul contamination poverty expressed in your heart

e|----19-16---------19-16---------19-16---------19-16-----------|
B|----------17------------17------------17------------17--------|
G|-------------16------------16------------16-------------------|
D|--------------------------------------------------------------|
A|--------------------------------------------------------------|
E|--------------------------------------------------------------|
  Soul contamination arise surrender burn

                  Pm
e|----19-16----------------------------------------------------|
B|----------17----17-17-17-17-17-17-17-17-17-17-17-17-17-17-17-|
G|----------------16-16-16-16-16-16-16-16-16-16-16-16-16-16-16-|
D|-------------------------------------------------------------|
A|-------------------------------------------------------------|
E|-------------------------------------------------------------|
   Soul contamination do you rise

e|-------------------------------------------------------------|
B|-17-17-17-17-17----------------------------------------------|
G|-16-16-16-16-16----------------------------------------------|
D|-------------------------------------------------------------|
A|-------------------------------------------------------------|
E|-------------------------------------------------------------|
  up


************************************

| h  Hammer-on
| r  Release
| b  Bend
| /  Slide up
| \  Slide down
| ~  Vibrato

************************************

Almost there ...

Sign in to get your own page with links to favourite songs and more. You are just one click away...

Login with Facebook Login with Google