Log in

One click and you are in

Login with Facebook Login with Google

Why sign up and log in

Guitar Tabs Explorer
Manic Street Preachers tabs for Small black flowers

Guitar tabs

Title: 'Small Black Flowers That Grow in the Sky'
Album: 'Everything Must Go'

Transcribed by Andrew Todd (andrew@citroen-restoration.co.uk) - authors own
work.


Played on a steel string acoustic, with the low 'E' string tuned down a
whole tone to 'D'


Main verse riff
---------------

E---------------------------------------------
B---------------------------------------------
G--------------9-----------9------------------
D-----------7----7-------7---7----------------
A--------8---------8---8-------8-----8-----8---
D-----0--------------0------------0-----0-----


E-------------------------------------------||
B---------12----------12-----10-------------||
G-------0---0-------0----0------0---0-------||
D-----9-------9---9--------9------9---------||
A--10----------10---------------------------||
D-------------------------------------------||


Chorus
------

 A chord diagramG+G   A chord diagramE minorEm
E-------3-------|--0-----
B-------3-------|--0-----
G-------4-------|--0-----
D-------5-------|--2-----
A-------5-------|--2-----
D-------5-------|--2-----

A chord diagramG+G
Wanna get out....

A chord diagramE minorEm
Sensaround....

A chord diagramG+G
To carry...

A chord diagramE minorEm
Tyre Tricks...


E-----------------------------------------
B-----------------------------------------
G--------------0-----------0--------------
D-----------4----4-------4---4------------
A--------0---------0---0-------0---0---0--
D-----0--------------0-----------0---0----
Wanna get out...


E---------------------------------------------
B---------------------------------------------
G----------0--------------0-------------------
D--------0---0----------0---0-----------------
A-----10-------10----10-------10----10----10--
D--10-------------10-------------10----10-----
bred-dead quick...


E----------------------------------------
B----------------------------------------
G-------------0-----------0--------------
D-----------0---0-------0---0------------
A--------9--------9---9-------9---9---9--
D-----9-------------9-----------9---9----
For the outside...


A chord diagramE MajorE||--------------------------------------------||
A chord diagramBB||--------------------------------------------||
A chord diagramG+G||--------0-----------0-----------------------||
A chord diagramD MajorD||------0---0-------0---0---------------------||
A chord diagramA augmentedA||--- 8-------8---8-------8---8---8-----------||
A chord diagramD MajorD||--8-----------8-----------8---8-------------||
Small black flowers...

Repeat verse lick, then another chorus

Other versions of Small Black Flowers

Small Black Flowers That Grow in The SkyChords

Almost there ...

Sign in to get your own page with links to favourite songs and more. You are just one click away...

Login with Facebook Login with Google