Log in

One click and you are in

Login with Facebook Login with Google

Why sign up and log in

Guitar Tabs Explorer
Manic Street Preachers tabs for She is suffering

She Is Suffering tab by Manic Street Preachers

Manic Street Preachers tabs for She is suffering

Guitar tabs with lyrics

Manic Street Preachers "She is Suffering" (The Holy Bible)



Verse

The verse is just a simple arpeggio.

E-|-------------------------|-------------------------|
B-|----------------8--------|----------------8--------|
G-|----------9--------9-----|----------9--------9-----|
D-|-------9-----9--------9--|-------9-----9--------9--|
A-|--7----------------------|--6----------------------|
E-|-------------------------|-------------------------|

   (A chord diagramA augmentedA)                       (A chord diagramA minorAm)
E-|-------------------------|-------------------------|
B-|----------------2--------|----------------1--------|
G-|----------2--------2-----|----------2--------2-----|
D-|-------2-----2--------2--|-------2-----2--------2--|
A-|--0----------------------|--0----------------------|
E-|-------------------------|-------------------------|


Chorus

The Chorus has plenty of twiddly bits going on at the
end of bars, its best just to improvise though or leave
out altoghether if your singing along.

   (A chord diagramG5G5)                      (A chord diagramB5B5)
E-|-------------------------|-------------------------|
B-|-------------------------|-------------------------|
G-|-------------------------|--4----------------------|
D-|--5-------------------5--|--4-(Let Ring)-----------|
A-|--5-(Let Ring)--------5--|--2----------------------|
E-|--3-------------------3--|-------------------------|

   (A chord diagramE minorEm)                      (A chord diagramEm6Em6)
E-|-------------------------|-------------------------|
B-|-------------------------|-------------------------|
G-|-------------------------|-------------------------|
D-|--2----2----3--3--3--2---|--3--2--3--2--3--2--2----|
A-|--2----2----2--2--2--2---|--2--2--2--2--2--2--2----|
E-|--0----0----0--0--0--0---|--0--0--0--0--0--0--0----|


   (A chord diagramG5G5)                      (A chord diagramB5B5)
E-|-------------------------|-------------------------|
B-|-------------------------|-------3----3----3-------|
G-|-------------------------|--4----4----4----4----4--|
D-|--5----5----5----5----5--|--4----4----4----4----4--|
A-|--5----5----5----5----5--|--2----2----2----2----2--|
E-|--3----3----3----3----3--|-------------------------|


   (A chord diagramA5A5)
E-|-------------------------|-------------------------|
B-|-------------------------|-------------------------|
G-|--2--2----2--2----2--2---|--2---2---2---2----------|
D-|--2--2----2--2----2--2---|--2---2---2---2----------|
A-|--0--0----0--0----0--0---|--0---0---0---0----------|
E-|-------------------------|-------------------------|


Lead Guitar

The faster bit on this is a little crazy so i probably
havnt got it 100% right but i usaully play this or
something similar and it sounds o.k.

E-|-------------------------|-------------------------|
B-|-11----08----10----06----|-11----08----10----15----|
G-|-13(b)-10(b)-12(b)-08(b)-|-13(b)-10(b)-12(b)-17(b)-|
D-|-------------------------|-------------------------|
A-|-------------------------|-------------------------|
E-|-------------------------|-------------------------|


E-|-------------------------|----12-10-11----11----11-|
B-|-11----08----10----06----|-11----------13----11----|
G-|-13(b)-10(b)-12(b)-08(b)-|-------------------------|
D-|-------------------------|-------------------------|
A-|-------------------------|-------------------------|
E-|-------------------------|-------------------------|


E-|-11----11----12-12-10-11-|-------------------------|
B-|----10----10-------------|-12^^^^^^^--10h(11)p(10)-|
G-|-------------------------|-------------------------|
D-|-------------------------|-------------------------|
A-|-------------------------|-------------------------|
E-|-------------------------|-------------------------|


E-|-------------------------|-------------------------|
B-|----9h(10)p(9)-----------|----b(10)r(9)------------|
G-|-------------------------|-------------------------|
D-|-------------------------|-------------------------|
A-|-------------------------|-------------------------|
E-|-------------------------|-------------------------|


Well thats pretty much it! That was my first tab and i
did it in my head at uni...so im guessin theres gonna
be plenty of errors in it and bits missed out, but it
sounds alright to me.

If youve got any comments or corrections email andy at
lunn_andrew@hotmail.com

Almost there ...

Sign in to get your own page with links to favourite songs and more. You are just one click away...

Login with Facebook Login with Google