Log in

One click and you are in

Login with Facebook Login with Google

Why sign up and log in

Guitar Tabs Explorer
Manic Street Preachers chords for His last painting

His Last Painting chords by Manic Street Preachers

Manic Street Preachers chords for His last painting

Guitar chords

Title: His Last Painting
Album: Know Your Enemy

I have come across two versions of the verse of this song. The first one is right, but the second sounds nicer and is easier to play, but it's just my opinion.

Version 1
e----0------------2------1---------
B------1------------3------3-------
G--------2------------0------0----
D-----------2-0--------------------
A--0--------------------------------
E-----------------------------------
Version 2
e----------------2------1-----------------
B------------------3------3---------------
G--------------------0------0-------------
D-----------2-0--------------------------
A--0-3-0-0------------------------------
E----------------------------------------

Repeat over and over for verse


Chorus

A chord diagramE minorEm A chord diagramA minorAm (pull off A chord diagramC majorC and hammer on again) A chord diagramE minorEm A chord diagramFF A chord diagramE MajorE A chord diagramFF

The lead parts are pretty easy to figure out

-----

Almost there ...

Sign in to get your own page with links to favourite songs and more. You are just one click away...

Login with Facebook Login with Google