Log in

One click and you are in

Login with Facebook Login with Google

Why sign up and log in

Guitar Tabs Explorer
Manic Street Preachers chords for Found that soul

Found That Soul chords by Manic Street Preachers

Manic Street Preachers chords for Found that soul

Guitar chords

lick 1
e-------------------------------------------------------
B-------------------------------------------------------
G--9-9X6-6-6-6-6-6-6-6-6-6-6XXX9-9X6-6-6-6-6-6-6-6-6-6-6
D--9-9X6-6-6-6-6-6-6-6-6-6-6XXX9-9X6-6-6-6-6-6-6-6-6-6-6
A--7-7X4-4-4-4-4-4-4-4-4-6-6XXX7-7X4-4-4-4-4-4-4-4-4-4-4
E-------------------------------------------------------

lick 2
e-----------------------------------------------------------------
B-----------------------------------------------------------------
G--7-7X4-4-4-4-4-4-4-4-4-4-4XXX7-7X4-4-4-4-4-4-4-4-4-4-4-4-4-4-4-4
D--7-7X4-4-4-4-4-4-4-4-4-4-4XXX7-7X4-4-4-4-4-4-4-4-4-4-4-4-4-4-4-4
A--5-5X2-2-2-2-2-2-2-2-2-2-2XXX5-5X2-2-2-2-2-2-2-2-2-2-2-2-2-2-2-2
E-----------------------------------------------------------------

chourse
e-----------------------------------------------
B-----------------------------------------------
G-------------------------X4-4-4-4-4-4-4-4-4-4-4
D5-5-5-5-5X4-4-4-4-4-4-4-4X4-4-4-4-4-4-4-4-4-4-4
A5-5-5-5-5X4-4-4-4-4-4-4-4X2-2-2-2-2-2-2-2-2-2-2
E3-3-3-3-3X2-2-2-2-2-2-2-2----------------------

guitar solo
e--------------------------------------------------------
B-------------7-7-7-7-7-7-7-9-9-9-9-9-9-9-9-9-9-9-9-9-9-9
G9-9-9-9-9-9-9-------------------------------------------
D--------------------------------------------------------
A--------------------------------------------------------
E--------------------------------------------------------

e----------------------------------------------
B10-10-10-10-10-9-7-7-7-7-7--------------------
G--------------------------9-8-8-8-8-8-4-6(bend)
D----------------------------------------------
A----------------------------------------------
E----------------------------------------------

SONG STRUCTURE
lick 1 (x6)
lick 2 (x1)
lick 1 (x1)
chourse (x4)
lick 1 (x4)
lick 2 (x1)
chourse (x4)
guitar solo (x1)
chourse (x4)

Almost there ...

Sign in to get your own page with links to favourite songs and more. You are just one click away...

Login with Facebook Login with Google