Log in

One click and you are in

Login with Facebook Login with Google

Why sign up and log in

Guitar Tabs Explorer
Manic Street Preachers tabs for Faster

Guitar tabs with lyrics

Title : Faster
Artist : Manic Street Preachers
Album : The Holy Bible

Transcribed by : Andrew Todd (andrew@citroen-restoration.co.uk) - authors
own work.


Intro guitar (with distortion and 'wobbly' chorus)
The rhythm just plays A chord diagramA5A5 under this


E----16--------16--------16--------16----------------------------
B----------------------------------------------------------------
G--------14--------14---------14--------14---16---14-------------
D----------------------------------------------------------------
A----------------------------------------------------------------
E----------------------------------------------------------------



Main Verse riff

E--------------------------------------------------------------------
B--------------------------------------------------------------------
G--------------------------------------------------------------------
D---6-----------6----------------6-----------6-----------------------
A--------------------------------------------------------------------
E------5--5--5-----5-5-5-5-5-5------5--5--5-----5--5--5---b5--5--b5-5



Bridge
------


E-------------|-------------------------||
B-------------|-------------------------||
G------7------|-------------------------||
D------7------|-------------------------||
A------5------|-------------------------||
E-------------|--4--2--0--4--2--0-------||
I am idiot...   ..the tattered and the...


repeat this, then end with

E-------------------------------
B-------------------------------
G----9--9--9--------------------
D----9--9--9--------------------
A----7--7--7--------------------
E----0--0--0--------------------
..Only to the cleansed repented




Chorus
------

repeat this lick until 'Miller and Mailer I spat..'
E--------------------------------------
B--------------------------------------
G------11-9--9--11-9--9----------------
D------11-9--9--11-9--9----------------
A------0--0--0--0--0--0----------------
E--------------------------------------
     I am stronger....



E---------------------------------------------------|-----
B---------------------------------------------------|-----
G----12-12-12--11-11-11--9-9-9--7-7-7--6-6-6--4-4-4-|-4---
D---------------------------------------------------|-4---
A---------------------------------------------------|-2---
E---------------------------------------------------|-----
    Miller and Mailer I spat out...		   ..Pinter...


E---------
B---------
G---------
D---------
A---2-----
E---0-----   repeat above 3 staves for 2nd time through chorus


End fill of chorus

E---12--12--12--12-||
B---12--12--12--12-||
G---12--12--12--12-||
D------------------||
A------------------||
E------------------||




Solo
----

E-----------------------------------------
B-----------------------------------------
G-----------------------------------------
D----------7--6--8---------5--4--6--------
A-----7--9-----------5--7-----------------
E-----------------------------------------


E-----------------------------------------
B-----------------------------------------
G-----------------------------------------
D----------7--6--8---------5--4--6--------
A-----7--9-----------5--7-----------------
E-----------------------------------------


repeat this 4 times
E-----------------------------------------
B-----------------------------------------
G-----------12--h14-----------11--h13-----
D---12--h14-----------11--h13-------------
A-----------------------------------------
E-----------------------------------------


E------9-----------------12------------------------
B---------12--9-------------15--12-----------------
G--11b----------11--14b-------------15-14-13-12----
D--------------------------------------------------
A--------------------------------------------------
E--------------------------------------------------

E--------------------------------12-14-15b------
B-----------------------12-14-15----------------
G---------------12--14--------------------------
D---14--12--14----------------------------------
A-----------------------------------------------
E-----------------------------------------------

(or something, just play some chromatic stuff around 12-15 frets)


Play verse riff under 'So damn easy to cave in...' until end.

Almost there ...

Sign in to get your own page with links to favourite songs and more. You are just one click away...

Login with Facebook Login with Google