Log in

One click and you are in

Login with Facebook Login with Google

Why sign up and log in

Guitar Tabs Explorer
Manic Street Preachers bass tabs for Enola alone

Enola Alone bass tab by Manic Street Preachers

Manic Street Preachers bass tabs for Enola alone

Bass tabs

Tuning: Standard (E A D G)


Intro:
G|----------------|----------------|----------------|----------------|
D|----------------|----------------|----------------|----------------|
A|----------------|----------------|----------------|----------------|
E|----------------|----------------|----------------|----------------|

G|----------------|----------------|----------------|----------------|
D|--0--0---0-0-0--|--0--0---0-0-0--|----------------|----------------|
A|----------------|----------------|--2--2--2-2-2---|----------------|
E|----------------|----------------|----------------|--3--3---3-3-3-3|

G|----------------|
D|----------------|
A|----------------|
E|-3-3-3-3-3-3-3-3|


Verse 1:
G|----------------|----------------|----------------|----------------|
D|--0--0---0-0-0--|--0--0---0-0-0--|----------------|----------------|
A|----------------|----------------|--2--2--2-2-2---|----------------|
E|----------------|----------------|----------------|--3--3---3-3-3-3|


G|----------------|----------------|----------------|----------------|
D|--0--0---0-0-0--|--0--0---0-0-0--|----------------|----------------|
A|----------------|----------------|--2--2--2-2-2---|----------------|
E|----------------|----------------|----------------|--3--3---3-3-3-3|


G|----------------|----------------|----------------|----------------|
D|--0--0---0-0-0--|--0--0---0-0-0--|----------------|----------------|
A|----------------|----------------|--2--2--2-2-2---|----------------|
E|----------------|----------------|----------------|--3--3---3-3-3-3|

G|----------------|----------------|----------------|----------------|
D|--0--0---0-0-0--|--0--0---0-0-0--|----------------|----------------|
A|----------------|----------------|--2--2--2-2-2---|----------------|
E|----------------|----------------|----------------|--3--3---3-3-3-3|

G|----------------|
D|----------------|
A|----------------|
E|-3-3-3-3-3-3-3-3|

Chorus:
G|----------------|----------------|----------------|----------------|
D|----------------|----------------|----------------|----------------|
A|--0--0---0-0-0--|--0--0--0-0-0-0-|----------------|----------------|
E|----------------|----------------|-2--2---2-2-2---|-2--2---2-2-2-2-|

G|----------------|----------------|----------------|----------------|
D|----------------|----------------|--0--0--0-0-0-0-|--0--2--4--5----|
A|-2--2---2-2-2---|-2--2---2-2-2-2-|----------------|----------------|
E|----------------|----------------|----------------|----------------|

G|----------------|----------------|----------------|----------------|
D|----------------|----------------|----------------|----------------|
A|--0--0---0-0-0--|--0--0--0-0-0-0-|----------------|----------------|
E|----------------|----------------|-2--2---2-2-2---|-2--2---2-2-2-2-|

G|----------------|----------------|----------------|----------------|
D|----------------|----------------|--0--0--0-0-0-0-|--0--0--0-0-0-0-|
A|-2--2---2-2-2---|-2--2---2-2-2-2-|----------------|----------------|
E|----------------|----------------|----------------|----------------|

G|----------------|----------------|
D|----------------|----------------|
A|-3--------------|-(3)------------|
E|----------------|----------------|


Verse 2:
G|----------------|----------------|----------------|----------------|
D|--0--0---0-0-0--|--0--0---0-0-0--|----------------|----------------|
A|----------------|----------------|--2--2--2-2-2---|----------------|
E|----------------|----------------|----------------|--3--3---3-3-3-3|

G|----------------|----------------|----------------|----------------|
D|--0--0---0-0-0--|--0--0---0-0-0--|----------------|----------------|
A|----------------|----------------|--2--2--2-2-2---|----------------|
E|----------------|----------------|----------------|--3--3---3-3-3-3|


G|----------------|----------------|----------------|----------------|
D|--0--0---0-0-0--|--0--0---0-0-0--|----------------|----------------|
A|----------------|----------------|--2--2--2-2-2---|----------------|
E|----------------|----------------|----------------|--3--3---3-3-3-3|


G|----------------|----------------|----------------|----------------|
D|--0--0---0-0-0--|--0--0---0-0-0--|----------------|----------------|
A|----------------|----------------|--2--2--2-2-2---|----------------|
E|----------------|----------------|----------------|--3--3---3-3-3-3|

G|----------------|----------------|----------------|----------------|
D|--0--0---0-0-0--|--0--0---0-0-0--|----------------|----------------|
A|----------------|----------------|--2--2--2-2-2---|----------------|
E|----------------|----------------|----------------|--3--3---3-3-3-3|

G|----------------|
D|----------------|
A|----------------|
E|-3-3-3-3-3-3-3-3|


Chorus:
G|----------------|----------------|----------------|----------------|
D|----------------|----------------|----------------|----------------|
A|--0--0---0-0-0--|--0--0--0-0-0-0-|----------------|----------------|
E|----------------|----------------|-2--2---2-2-2---|-2--2---2-2-2-2-|

G|----------------|----------------|----------------|----------------|
D|----------------|----------------|--0--0--0-0-0-0-|--0--2--4--5----|
A|-2--2---2-2-2---|-2--2---2-2-2-2-|----------------|----------------|
E|----------------|----------------|----------------|----------------|

G|----------------|----------------|----------------|----------------|
D|----------------|----------------|----------------|----------------|
A|--0--0---0-0-0--|--0--0--0-0-0-0-|----------------|----------------|
E|----------------|----------------|-2--2---2-2-2---|-2--2---2-2-2-2-|

G|----------------|----------------|----------------|----------------|
D|----------------|----------------|--0--0--0-0-0-0-|--0--0--0-0-0-0-|
A|-2--2---2-2-2---|-2--2---2-2-2-2-|----------------|----------------|
E|----------------|----------------|----------------|----------------|

G|----------------|----------------|
D|----------------|----------------|
A|-3--------------|-(3)------------|
E|----------------|----------------|


Solo:

G|----------------|------------------|-----------------|------------------|
D|----------------|------------------|-----------------|------------------|
A|------------5-7-|-7-7---7-7-7-7-5--|------------5-7--|--7-7---7-7-7-5---|
E|-0-0--0-5-7-----|----------------7-|-0-0--0-5-7------|----------------7-|

G|-----------------|-------------------|-----------------|----------------|
D|-----------------|-------------------|-----------------|----------------|
A|------------5-7--|--7-7---7-7-7-7-5--|------------5-7--|-7-7-5-5-4-4-2-2|
E|-0-0--0-5-7------|-----------------7-|-0-0--0-5-7------|----------------|

G|----------------|----------------|
D|----------------|----------------|
A|-0--------------|-0--------------|
E|----------------|----------------|


Chorus:
G|----------------|----------------|----------------|----------------|
D|----------------|----------------|----------------|----------------|
A|--0-------------|--0-------------|----------------|----------------|
E|----------------|----------------|-2--2---2-2-2---|-2--2---2-2-2-2-|

G|----------------|----------------|----------------|----------------|
D|----------------|----------------|--0--0--0-0-0-0-|--0--2--4--5----|
A|-2--2---2-2-2---|-2--2---2-2-2-2-|----------------|----------------|
E|----------------|----------------|----------------|----------------|

G|----------------|----------------|----------------|----------------|
D|----------------|----------------|----------------|----------------|
A|--0--0---0-0-0--|--0--0--0-0-0-0-|----------------|----------------|
E|----------------|----------------|-2--2---2-2-2---|-2--2---2-2-2-2-|

G|----------------|----------------|----------------|----------------|
D|----------------|----------------|--0--0--0-0-0-0-|--0--0--0-0-0-0-|
A|-2--2---2-2-2---|-2--2---2-2-2-2-|----------------|----------------|
E|----------------|----------------|----------------|----------------|

G|----------------|----------------|----------------|----------------|
D|----------------|----------------|----------------|----------------|
A|-3--------------|-(3)------------|-3--------------|-(3)------------|
E|----------------|----------------|----------------|----------------|


Outro:

G|----------------|----------------|----------------|----------------|
D|-0--------------|-4--------------|-5--------------|-5--------------|
A|----------------|----------------|----------------|----------------|
E|----------------|----------------|----------------|----------------|

G|----------------|----------------|----------------|-11-9--7-9-7----|
D|-0-------------2|-4--------------|-5--------------|-------------9-7|
A|----------------|----------------|----------------|----------------|
E|----------------|----------------|----------------|----------------|


************************************
| (n) Ghost note
************************************

Almost there ...

Sign in to get your own page with links to favourite songs and more. You are just one click away...

Login with Facebook Login with Google