Log in

One click and you are in

Login with Facebook Login with Google

Why sign up and log in

Guitar Tabs Explorer
Manic Street Preachers chords for Australia

Guitar chords

here is the tab for Australia from the album "everything must go"


INTRO
  A chord diagramE MajorE
E-00---00---00---00-00-00-00-00--------------------------
B-00---00---00---00-00-00-00-00--------------------------
G-13---14---16---17-17-16-14-14--------------------------
D-XX---XX---XX---XX-XX-XX-XX-XX REPEAT-IT ALL -----------
A-11---12---14---15-15-14-12-12--------------------------
E-00---00---00---00-00-00-00-00--------------------------


CHORUS
A chord diagramE MajorE ( play this twice twice) A chord diagramA augmentedA           A chord diagramBB       A chord diagramA augmentedA
-00--00-00-00-00-00-00-0-)--0-----0-----0-------------------
-00--00-00-00-00-00-00-0-)---0-----0-----0------------------
-13--13-14-16-14-13-11-9-)----6-----6-----8-----------------
-XX--XX-XX-XX-XX-XX-X--X-)-7---7-7---7-9---9-9-7-7-7-7-7-7--
-11--11-12-14-12-11-9--7-)-7-----7-----9-----9-7-7-7-7-7-7--
-OO--00-00-00-00-00-0--0-)-5-----5-----7-----7-5-5-5-5-5-5--


VERSE : (A chord diagramC# minorC#m  A chord diagramC#m7C#m7 A chord diagramC# minorC#m  A chord diagramC majorC   A chord diagramC majorC  A chord diagramC majorC  A chord diagramD MajorD A chord diagramD MajorD)x2 A chord diagramB5B5 A chord diagramB5B5 A chord diagramA augmentedA A chord diagramA augmentedA A chord diagramA augmentedA A chord diagramA augmentedA A chord diagramA augmentedA)

any questions or comments? e-mail me <akdookie@hotmail.com>

Submitted by Alan Kells.

Almost there ...

Sign in to get your own page with links to favourite songs and more. You are just one click away...

Login with Facebook Login with Google