Log in

One click and you are in

Login with Facebook Login with Google

Why sign up and log in

Guitar Tabs Explorer
Manic Drive bass tabs for Music

Bass tabs

-------------------------------------------------------------------------------

Tabbed By : me


Tuning: standard


Intro/Refrain

G|--------------------------------------------------------------------|
D|--------------------------------------------------------------------|
A|-----------------------------5-0-3--3-3-3-3-3-3-3-3-0-0-0-0-0-0-0-0-|
E|---0-0-0-0-0-0-0-0-0-2-0-3-0----------------------------------------|

G|--------------------------------------------------------------------|
D|--------------------------------------------------------------------|
A|-----------------------------5-0-3--3-3-3-3-3-3-3-3-0-0-0-0-0-2--3--|
E|---0-0-0-0-0-0-0-0-0-2-0-3-0----------------------------------------|


Verse
  a)
G|-----------------------------------------------------------|
D|-----------------------------------------------------------|
A|---3-3-3-3-3-3-3-3-0-0-0-0-0-0-0-0-------------------------|
E|-----------------------------------------------------------|

  b)
G|------------------------------------------------------|
D|---------------1-2------------------------------------|
A|---------0-2-3----------------------------------------|
E|---0-2-3----------------------------------------------|      x2

   a)
G|-----------------------------------------------------------|
D|-----------------------------------------------------------|
A|---3-3-3-3-3-3-3-3-0-0-0-0-0-0-0-0-------------------------|
E|-----------------------------------------------------------|

   c)
G|------------------------------------------------------|
D|---------------3-4------------------------------------|
A|---------0-2-3----------------------------------------|
E|---0-2-3----------------------------------------------|

   d)
G|-----------------------------------------------------------|
D|-----------------------------------------------------------|
A|---3-3-3-3-3-3-3-3-5-5-5-5-5-------------------------------|
E|-----------------------------------------------------------|

Refrain


Verse
a)
b)
a)
c)
a)
b)
d)


Refrain


Bridge
In the first time there isnt bass, in the end of this first time he plays a
strange riff i couldnt tab out.
And then bass comes in:
G|------------------------------------------------------|
D|---------------1-2------------------------------------|
A|---------0-2-3----------------------------------------|
E|---0-2-3----------------------------------------------|   x3

G|------------------------------------------------------|
D|------------------------------------------------------|
A|---------0-2-0----------------------------------------|
E|---0-2-3-------3-2------------------------------------|


Refrain

this next short slap/pop riffs are just to incredible to tab out. i just know that
its somethin in E.
i think the first stuff is something like that:
G|-------------------------------------------------|
D|-----------2-------------------------------------|
A|-------------------------------------------------|
E|--0h2p0------------------------------------------|
  P    S

| / slide up
| \ slide down
| h hammer-on
| p pull-off
| ~ vibrato
| + harmonic
| x Mute note

Almost there ...

Sign in to get your own page with links to favourite songs and more. You are just one click away...

Login with Facebook Login with Google