Log in

One click and you are in

Login with Facebook Login with Google

Why sign up and log in

Guitar Tabs Explorer
Manic Drive bass tabs for Hope

Bass tabs

HOPE - Manic Drive
-------------------------------------------------------------------------------

Tabbed By : me
Tuning: Standard

This was a hard one..

Bass starts in 0:23:


Verse
G|------7------------------------------------------------------|
D|--------5---5----------------------------------------5-7-5---|
A|----------7---7------------------------------5-7-5-7---------|
E|--------------------0-0-3-5-3-----0-0-0-0--0-----------------|


Refrain
G|--------------------------------------------------------|
D|--------------------------------------------------------|
A|--------------------------------------------------------|
E|---0-0-0-0-2-2-2-2-3-3-3-3-3-3-3-3----------------------|

the last one:
G|--------------------------------------------------------|
D|--------------------------------------------------------|
A|-------------------2-2-2-2-2-2-2-2----------------------|
E|---0-0-0-0-2-2-2-2--------------------------------------|


Bridge
G|-----------------------------------------------------|
D|-----------------------------------------------------|
A|-----------------------------------------------------|
E|--0-0-0-0-2-2-2-2-3-3-3-3-5-5-5-5--------------------| x2

G|--------------------------------------------------------------|
D|--------------------------------------------------------------|
A|----3-3-3-3------3-3-3-3--------3-3-3-3-----/5--5-7-5-0-------|
E|--------------------------------------------------------------| x2

G|----------------------------------------------------|
D|----------------------------------------------------|
A|----7-7-7-7-----7-7-7-7------7-7-7-7-------7-7-7-7--|
E|----------------------------------------------------| x2

G|--------------------------------------------------------------|
D|--------------------------------------------------------------|
A|----3-3-3-3------3-3-3-3--------3-3-3-3-----/5--5-7-5-0-------|
E|--------------------------------------------------------------|

G|--------------------------------------------------------------|
D|--------------------------------------------------------------|
A|----3-3-3-3------3-3-3-3--------3-3-3-3-----8-8-8-8-8-8-8-8---|
E|--------------------------------------------------------------|

last riff:
G|--------------------------0-2-0----------------------------|
D|--------2---------0-2-0-2----------------------------------|
A|--------------0-2------------------------------------------|
E|----------0-3----------------------------------------------|


| / slide up
| \ slide down
| h hammer-on
| p pull-off
| ~ vibrato
| + harmonic
| x Mute note

Almost there ...

Sign in to get your own page with links to favourite songs and more. You are just one click away...

Login with Facebook Login with Google